Oops, an error
Loading. Please wait.

Garbage Truck Bass Tab

version 1
version 1

Whole song

38,441 views 30 this week
no commentswrite comment
1 2 3 4 5
x 9
add to favorites
launch autoscroll
font size
0
reset
guitar tuner
Autoscroll
slow
fast
+/-
esc
set tempo
stop
Help us to improve Ultimate-Guitar.com Take our survey!
×
Song: Garbage Truck
Artist: Sex Bob-omb (Written by Beck)
Tabbed: Sephorangelus
Tuning: Standard EADG

So the bass is pretty much the root notes of what the chords of the 
song are, the main difference is the octave part when the guitars stop.
I can only hear the little 3/7 bits on the beck version from the soundtrack 
and not in the movie version they are slightly different. Kick ass song!

Note: I didn't really tab out the rythm properly, you just strum it with 
a pick so listen to the song to get it properly...

           Woooh             Ah ha ha
G||-----------------|-----------------|-----------------|-----------------|
D||-----------------|-----------------|-----------------|-----------------|
A||--------5--5--5--|--------2--2--2--|--------5--5--5--|--------2--2--2--|
E||--0--0-----------|--3--3-----------|--0--0-----------|--3--3-----------|

   

     I'll take you for a ride             On my garbage truck              
G||-----------------|-----------------|-----------------|-----------------|
D||-----------------|-----------------|-----------------|-----------------|
A||--------5--5--5--|---------2--2----|--------5--5--5--|--------2--2--2--|
E||--0--0-----------|--3--3-----------|--0--0-----------|--3--3-----------|


                        Oh no            I'll take you to the dump
G|------------------|-----------------|-----------------|------------------|
D|------------------|-----------------|-----------------|------------------|
A|---2---2---2---2--|---0---0---0-----|--------5--5--5--|--------2--2--2---|
E|------------------|---------------3-|--0--0-----------|--3--3------------|


    Coz you're my queen                    I'll take you uptown
G|------------------|-----------------|-----------------|------------------|
D|------------------|-----------------|-----------------|------------------|
A|--------5--5--5---|---------2--2----|--0---0---0---0--|--3---3---3---3/7-|
E|--0--0------------|--3--3-----------|-----------------|------------------|


  I'll show you the sights, you know you wanna ride                 on my
G|------------------|-----------------|-----------------|------------------|
D|------------------|-----------------|-----------------|------------------|
A|--0---0---0---0---|--3--3--3--3--5--|--------5--5--5--|--------2--2--2---|
E|------------------|-----------------|--0--0-----------|--3--3------------|


  Garbage truck      Truck Truck Truck     We'll pass the mansions by
G|------------------|-----------------|-----------------|------------------|
D|------------------|-----------------|-----------------|------------------|
A|---------5--5--5--|---------2--2----|--0---0---0---0--|--3---3---3---3---|
E|---0--0-----------|--3--3-----------|-----------------|------------------|


   Drive right through, the needles eye. Oh my        
G|------------------|-----------------|-----------------|------------------|
D|------------------|-----------------|-----------------|------------------|
A|--0---0---0---0---|--3--3--3--3--5--|--------5--5--5--|---------2--2--2--|
E|------------------|-----------------|--0--0-----------|--3--3------------|
 

         My, my, my, my                           I got a stereo 
G|------------------|-----------------|-----------------|------------------|
D|------------------|-----------------|-----------------|------------------|
A|---------5--5--5--|---------2--2----|--0---0---0---0--|--3---3---3---3/7-|
E|--0--0------------|--3--3-----------|-----------------|------------------|


   You just got to turn the knob and baby we'll go        As far as we can
G|------------------|-----------------|--------7--7--7--|------------------|
D|------------------|-----------------|-----------------|---5--5---9--9----|
A|---0---0---0---0--|--3---3---3---3--|--7--7-----------|------------------|
E|------------------|-----------------|-----------------|------------------|


                     I'll be your garbage man             I'll take out
G|---------7--7--7--|-----------------|--------7--7--7--|------------------|
D|------------------|--5--5---9--9----|-----------------|--5--5--9--9--9---|
A|--7--7------------|-----------------|--7--7-----------|------------------|
E|------------------|-----------------|-----------------|------------------|


  your junk         And I'll crush it down       Jesus in my rear view
G|---------7--7--7--|-----------------|-----------------|------------------|
D|------------------|--5--5--9--9--9--|-----------------|------------------|
A|--7--7------------|-----------------|--0---0---0---0--|--3---3---3---3---|
E|------------------|-----------------|-----------------|------------------|


  And the highway patrol is up ahead                     In my garbage truck
G|------------------|-----------------|--------7--7--7--|------------------|
D|------------------|-----------------|-----------------|--5--5--9--9--9---|
A|--0---0---0---0---|--3---3---3---3--|--7--7-----------|------------------|
E|------------------|-----------------|-----------------|------------------|


   truck               I'll never throw you away    When you're old and grey 
G|---------7--7--7--|-----------------|--------7--7--7--|------------------|
D|------------------|--5--5--9--9--9--|-----------------|--5--5--9--9--9---|
A|--7--7------------|-----------------|--7--7-----------|------------------|
E|------------------|-----------------|-----------------|------------------|


                      We just roll it away
G|---------7--7--7--|-----------------|--------7--7--7--|
D|------------------|--5--5--9--9--9--|-----------------|
A|--7--7------------|-----------------|--7--7-----------|
E|------------------|-----------------|-----------------|
Suggest correction
comments
print report bad tab
guest
You may want to rate the tab now too:
select rating
Wanna post a correction for this tab? Suggest correction