Oops, an error
Loading. Please wait.

Garbage Truck Bass Tab

version 2
version 2

Whole song

70,720 views 132 this week
4 commentsread comments
1 2 3 4 5
excellent!
x 33
add to favorites
launch autoscroll
font size
0
reset
guitar tuner
Autoscroll
slow
fast
+/-
esc
set tempo
stop
Help us to improve Ultimate-Guitar.com Take our survey!
×
Difficulty
novice
Song: Garbage Truck
Artist: Sex Bob-omb/Beck
Album: Scott Pilgrim vs. the World Soundtrack
Tuning: Standard


       Wooh!             Ah-Ha-ha
G|-----------------|-----------------|-----------------|-----------------|
D|-----------------|-----------------|-----------------|-----------------|
A|---------5--5----|---------2--2----|---------5--5----|---------2--2----|
E|--0--0-----------|--3--3-----------|--0--0-----------|--3--3-----------|

      I'll take you for a ride           On my garbage truck  
G|-----------------|-----------------|-----------------|-----------------|
D|-----------------|-----------------|-----------------|-----------------|
A|---------5--5----|---------2--2----|---------5--5----|---------2--2----|
E|--0--0-----------|--3--3-----------|--0--0-----------|--3--3-----------|

                       Oh no             I'll take you to the dump
G|------------------|------------------|-----------------|-----------------|
D|------------------|------------------|-----------------|-----------------|
A|---2---2---2---2--|---0---0---0---0--|---------5--5----|---------2--2----|
E|------------------|------------------|--0--0-----------|--3--3-----------|

    Cuz' you're my queen                    I'll take you uptown
G|-----------------|-----------------|-----------------|------------------|
D|-----------------|-----------------|-----------------|------------------|
A|---------5--5----|---------2--2----|--0---0---0---0--|--3---3---3---3---|
E|--0--0-----------|--3--3-----------|-----------------|------------------|

  I'll show you the sights, you know you wanna ride                 On my
G|------------------|-----------------|-----------------|-----------------|
D|------------------|-----------------|-----------------|-----------------|
A|--0---0---0---0---|---3--3--3--3-5--|---------5--5----|---------2--2----|
E|------------------|-----------------|--0--0-----------|--3--3-----------|

 garbage truck      Truck, truck, truck     We'll pass the mansions by
G|-----------------|------------------|-----------------|------------------|
D|-----------------|------------------|-----------------|------------------|
A|---------5--5----|----------2--2----|--0---0---0---0--|--3---3---3---3---|
E|--0--0-----------|---3--3-----------|-----------------|------------------|

   Drive right through, the needles eye. Oh my        
G|------------------|-----------------|----------------|----------------|
D|------------------|-----------------|----------------|----------------|
A|--0---0---0---0---|---3--3--3--3-5--|--------5--5----|---------2--2---|
E|------------------|-----------------|--0--0----------|--3--3----------|
 
         My, my, my, my                           I got a stereo 
G|-----------------|-----------------|-----------------|------------------|
D|-----------------|-----------------|-----------------|------------------|
A|---------5--5----|---------2--2----|--0---0---0---0--|--3---3---3---3---|
E|--0--0-----------|--3--3-----------|-----------------|------------------|

 You just got to turn the knob, and baby we'll go *Bass Solo*
G|------------------|-----------------|-----------------|-----------------|
D|------------------|-----------------|-----------------|-----------------|
A|---0---0---0---0--|--3---3---3---3--|---------5--5----|---------2--2----|
E|------------------|-----------------|--0--0-----------|--3--3-----------|

 As far as we can         I'll be your garbage man             I'll take out
G|-----------------|-----------------|-----------------|-----------------|
D|-----------------|-----------------|-----------------|-----------------|
A|---------5--5----|---------2--2----|---------5--5----|---------2--2----|
E|--0--0-----------|--3--3-----------|--0--0-----------|--3--3-----------|

 your junk    And I'll push it down *BLE*   Jesus in my rear view
G|-----------------|-----------------|-----------------|------------------|
D|-----------------|-----------------|-----------------|------------------|
A|---------5--5----|---------2--2----|--0---0---0---0--|--3---3---3---3---|
E|--0--0-----------|--3--3-----------|-----------------|------------------|

 And the highway patrol, up ahead      *Bass Solo*       
G|------------------|-----------------|-----------------|-----------------|
D|------------------|-----------------|-----------------|-----------------|
A|---0---0---0---0--|--3---3---3---3--|---------5--5----|---------2--2----|
E|------------------|-----------------|--0--0-----------|--3--3-----------|

   In my garbage truck, truck                 I'll never throw you away
G|-----------------|-----------------|-----------------|-----------------|
D|-----------------|-----------------|-----------------|-----------------|
A|---------5--5----|---------2--2----|---------5--5----|---------2--2----|
E|--0--0-----------|--3--3-----------|--0--0-----------|--3--3-----------|

        When you're old and gray              You just roll away (Cut Off)
G|-----------------|-----------------|-----------------|-----------------|
D|-----------------|-----------------|-----------------|-----------------|
A|---------5--5----|---------2--2----|---------5--5----|---------2--2----|
E|--0--0-----------|--3--3-----------|--0--9-----------|--3--3-----------|
Suggest correction
comments
print report bad tab
4 comments total. Showing first comments.
+1 reply
toddyV 584 wrote on August 18 2013, 06:33 pm

what does *BLE* mean?

+1 reply
kyle.louden1 10 wrote on July 14 2014, 07:14 pm

I think the 5's on A need to be hit 3 times and im pretty sure the 2's on A need to be hit A-2020 or A-2-0h22. I play it A-2020 and it is a pretty good match.

0 reply
dss_bass_player 10 wrote on March 3 2015, 09:15 pm

Scott pilgrim Mann

guest
You may want to rate the tab now too:
select rating
Please do not post tabs as comments. Select "correction" instead!