Oops, an error
Loading. Please wait.

Summertime Bass Tab

20,611 views 42 this week
3 commentsread comments
1 2 3 4 5
excellent!
x 10
add to favorites
launch autoscroll
font size
0
reset
guitar tuner
Tab Pro tools
  • play this tab
  • loop segment
  • change instrument
  • show fretboard
  • metronome
Autoscroll
slow
fast
+/-
esc
set tempo
stop
First tab, might have a few inaccuracies.
You should listen to the song for the exact rhythm.

Intro
G|---------------------||
D|---------------------||
A|---------------------||
E|8-8-8-8-8-8-8-8-8-8-8||

Verse
G|---------------------------------------------------------------||
D|---------------------------------------------------------------||
A|----888-----777-----888-----777-----888-----777-----888--------||
E|8-8-----8-8-----8-8-----8-8-----8-8-----8-8-----8-8-----8-8-8-8||

Chorus A
G|-------------------------------------------------------------------||
D|-------------------------------------------------------------------||
A|7---------------7---------------7-------------------5-5555552-2-2-2||
E|--7-5-555555555---7-5-555555555---7-5-555555555-5-7----------------||

Chorus B
G|--------------------------------------------------------------------||
D|--------------------------------------------------------------------||
A|7---------------7---------------7---------------5-0-2-22222222222222||
E|--7-5-555555555---7-5-555555555---7-5-555555555---------------------||

Chorus C
G|-------------------------------------------------------------------||
D|-------------------------------------------------------------------||
A|7---------------7---------------7----------------225555555522222222||
E|--7-5-555555555---7-5-555555555---7-5-55555555555------------------||

Order:

Intro 
Verse 
Chorus A 
Verse
Chorus B
Verse
Chorus C
Verse
Chorus C
Verse

Last hold note is 8 on E
comments
print report bad tab
3 comments total.
0 reply
elenacow wrote on July 8 2013, 09:32 pm

when i play along with the song theres more to it than the order you put

0 reply
henrimaandi wrote on October 6 2014, 10:04 am, edited at 10:08 am

awesome tab! but there is something missing from the end

0 reply
henrimaandi wrote on October 6 2014, 10:09 am

oh nevermind i wasnt playng the last chorus

I want to post or [tab]
guest
You may want to rate the tab now too:
select rating
Please do not post tabs as comments. Select "correction" instead!