Oops, an error
Loading. Please wait.

Threshold Bass Tab

version 1
version 1

Whole song

Interactive

83,578 views 126 this week
4 commentsread comments
1 2 3 4 5
x 12
add to favorites
launch autoscroll
font size
0
reset
guitar tuner
×
Best way to learn
"Threshold"
Autoscroll
slow
fast
+/-
esc
set tempo
stop
WE ARE SEX BOB-OMB AND WE ARE HERE TO MAKE YOU THINK ABOUT DEATH AND GET SAD AND STUFF

 [Verse]
G|------------|  |----------------------| |------------|  |--------------------|
D|------------|  |----------------------| |------------|  |--------------------|
A|--3-3-3/6\1-|X8|-66666666--5555-0000--| |-3-3-3/6\1--|X6|-66666666--5555-0000|
E|------------|  |----------------------| |------------|  |--------------------|

G|------------|  |-----------|
D|------------|  |-----------|
A|--3-3-3/6\1-|X3|--33333333-|
E|------------|  |-----------|

 [Chorus]
G|----------------------|
D|----------------------|
A|--33333333--1111------|X2
E|-----------------2222-|

Back to the verse and through the chorus

 [Outro]
G|------------|  |-----------------|
D|------------|  |-----------------|
A|--3-3-3/6/9-|X8|-----------------|
E|------------|  |-6-6-6-6\2-2-2-2-|

G|---------------------------------|
D|---------------------------------|
A|--3-3-3/6/9----------------------|
E|--------------6-6-6-6\2-2-2-2----|

G|------------|  |-----------------|
D|------------|  |-----------------|
A|--3-3-3/6/9-|X2|-----------------|
E|------------|  |-6-6-6-6\2-2-2-2-|



************************************

| /  Slide up
| \  Slide down

************************************
Suggest correction
comments
print report bad tab
4 comments total. Showing first comments.
0 reply
wiredguitarist1 51 Aug 24, 2010 04:52 PM

Good Stuff. I would change:

Chorus
G----------------------|
D----------------------|
A--33333333--1111------|X2
E-----------------2222-|

Chorus
G----------------------|
D----------------------|
A--33333333--1111------|X2
E-----------------1111-|

Chorus
G----------------------|
D-----------------3333-|
A--33333333--1111------|X2
E----------------------|

0 reply
wiredguitarist1 51 Aug 24, 2010 04:53 PM

Change the first to either of the bottom two.

0 reply
Mikeywaybassist 10 Jun 08, 2011 05:53 AM

this is a bot confusing can rearange it into verses and chorus' cos i can't tell where one really ends and where another begins. thnks other than that looks good.

guest
You may want to rate the tab now too:
select rating
Wanna post a correction for this tab? Suggest correction