Oops, an error
Loading. Please wait.

Threshold Bass Tab

version 2
version 2

Whole song

Interactive

19,302 views 42 this week
no commentswrite comment
1 2 3 4 5
x 14
add to favorites
launch autoscroll
font size
0
reset
guitar tuner
Autoscroll
slow
fast
+/-
esc
set tempo
stop
Help us to improve Ultimate-Guitar.com Take our survey!
×
Difficulty
intermediate
G------------|  |----------------------| |------------|  |--------------------|
D------------|  |----------------------| |------------|  |--------------------|
A--335-6-----|X8|-66666666--5555-0000--| |-335-6------|X6|-66666666--5555-1111|
E--------33--|  |----------------------| |-------33---|  |--------------------|

G------------|  |--------------------------| |-------------------|  
D------------|  |--------------------------| |-------------------|  
A--335-6-----|X3|33333333--3-3-3-3-3-3-3333| |-1-1-1-1-----------|
E--------33--|  |--------------------------| |----------1-1-1111-|  

G|--------------------------| |-------------------|  
D|--------------------------| |-------------------|  
A|33333333--3-3-3-3-3-3-3333| |-1-1-1-1-1---------|
E|--------------------------| |-----------111-1-1-| 

G------------|  |----------------------| |------------|  |--------------------|
D------------|  |----------------------| |------------|  |--------------------|
A--335-6-----|X4|-66666666--5555-0000--| |-335-6------|X4|-66666666--5555-1111|
E--------33--|  |----------------------| |-------33---|  |--------------------|

G------------|  |--------------------------| |-------------------|  
D------------|  |--------------------------| |-------------------|  
A--335-6-----|X3|33333333--3-3-3-3-3-3-3333| |-1-1-1-1-----------|
E--------33--|  |--------------------------| |----------1-1-1111-|  

G|--------------------------| |-------------------|  
D|--------------------------| |-------------------|  
A|33333333--3-3-3-3-3-3-3333| |-1-1-1-11----------|
E|--------------------------| |----------111-1-1--| 

G------------|  |------------|      
D------------|  |--------44--|     
A--335-6-----|  |--335-6-----|X6                      
E--------33--|  |------------|   

G|--------------------------|  
D|--------------------------|  
A|33-33-3---1-1-1-1---------| 
E|------------------11111111|    

G|------------|      
D|--------44--|     
A|--335-6-----|X2                      
E|------------|   

G|-------------------|  
D|-------------------|  
A|-1-1-1-1-----------|
E|---------33333333--| 

G------------|  |-----------|      
D--------44--|  |-----------|     
A--335-6-----|  |-335-6-99/3|                   
E------------|  |-----------|   

Suggest correction
comments
print report bad tab
guest
You may want to rate the tab now too:
select rating
Wanna post a correction for this tab? Suggest correction