Oops, an error
Loading. Please wait.

Threshold Bass Tab

version 3
version 3

Whole song

Interactive

3,406 views 1 this week
no commentswrite comment
1 2 3 4 5
please rate
add to favorites
launch autoscroll
font size
0
reset
guitar tuner
Autoscroll
slow
fast
+/-
esc
set tempo
stop
Help us to improve Ultimate-Guitar.com Take our survey!
×
Author
Difficulty
intermediate
-------------------------------------------------------------------------------
                             Threshold – Sex Bob-omb
-------------------------------------------------------------------------------

Tabbed By : Guitarinator123 
e-mail: Whyguy20@gmail.com

Tuning:standard

G|---------------------------------------------------------------------------|
D|---------------------------------------------------------------------------|
A|---333\5-00--0--333\5-00--0--333\5-00---0--333\5-00--0--333\5-00--0--------|
E|------------1------------1------------1-------------1------------1---------|

G|---------------------------------------------------------------------------|
D|---------------------------------------------------------------------------|
A|---333\5-00--0--333\5-00--0--333\5-00--0--66666666/55555555----------------|
E|------------1------------1-----------1-------------------------------------|



| /  slide up
| \  slide down
| h  hammer-on
| p  pull-off
| ~  vibrato
| +  harmonic
| x  Mute note
===============================================================================
Suggest correction
Give kudos to tab author, rate the tab!
1 2 3 4 5
comments
print report bad tab
guest
You may want to rate the tab now too:
select rating
Please do not post tabs as comments. Select "correction" instead!