Oops, an error
Loading. Please wait.

We Are Sex Bob-Omb Bass Tab

version 1
version 1

Whole song

Interactive

110,314 views 87 this week
8 commentsread comments
1 2 3 4 5
x 28
add to favorites
launch autoscroll
font size
0
reset
guitar tuner
Autoscroll
slow
fast
+/-
esc
set tempo
stop
Help us to improve Ultimate-Guitar.com Take our survey!
×
Author
Difficulty
novice
4/4 Rock, Fast Hard. Sloppy
Tuning Eadg

This is the opening song to the movie "Scott Pilgrim vs. The World"
Crank up your bass, and jam along with Sex Bob-omb


WE ARE SEX BOB-OMB!!!! 1-2-3-4!!!!


 [Opening Riff]
G|-----------------------------------------------------------|
D|-----------------------------------------------------------|x2
A|--------------5-0-0-5-0--------------------5-0-0-5-0-------|
E|--7--7--7--7-------------------7--7--7--7------------------|

 [Verse]
G|------------------------------------------------------------|
D|------------------------------------------------------------|
A|------------------------------------------------------------|
E|--7--7--7--7--7--7--7--7--7--7--7---7---7---7---7---7---7--7|

G|----------------------------------------------------------------|
D|----------------------------------------------------------------|
A|--1010101010101010-77777777-----------5-0-0-5-0--------5-0-0-5-0|
E|----------------------------7--7--7--7--------- 7-7-7-7---------|

 [Riff]
G|-------------------------------------------------------------------|
D|-------------------------------------------------------------------|
A|---------5-0-0-5-0------------------------5-0-0-5-0----------------|
E|-7-7-7-7----------7-7-7-7-7-7-7-7--7-7-7-7---------7-7-7-7-7-7-7-7-|

G|-----------------------------------------------------------|
D|-----------------------------------------------------------|
A|----------5-0-0-5-0---------------1010101010101010-777-0-00|
E|--5-5-5-5----------7-7-7-7-7-7-7-7-------------------------|

G|-----------------------------------------------------------|
D|-----------------------------------------------------------|x2
A|--------------5-0-0-5-0--------------------5-0-0-5-0-------|
E|--7--7--7--7-------------------7--7--7--7------------------|

G|-----------------------------------------------------------|
D|-----------------------------------------------------------|
A|----------5-0-0-5-0---------------1010101010101010-777-0-00|
E|--5-5-5-5----------7-7-7-7-7-7-7-7-------------------------|

G|----------------|
D|----------------|
A|----------------|
E|--7-7-7-7-7-7-7-|

 [Bridge]
G|----------------------------------------------------------------|
D|----------------------------------------------------------------|
A|----------------------------------------------------------------|
E|-7-7-7-7-7-7-7-7-7-7-7-7-7-7-7-7-5-5-5-5-5-5-5-5-7-7-7-7-7-7-7-7|

G|-------------------------------------------------|
D|---------------------------------------------4-2-|
A|-5-5-5-5-5-5-5-5---------------------------------|
E|----------------7-7-7-7-7-7-7-7-7-5-5-5-5-222----|

G|-----------------------------------------------------------|
D|-----------------------------------------------------------|x2
A|--------------5-0-0-5-0--------------------5-0-0-5-0-------|
E|--7--7--7--7-------------------7--7--7--7------------------|

 [ENDING]
G|------------------------------------------|
D|------------------------------------------|
A|------------------------------------------|
E|-7-7-7-7-7-7-7-7-7-7-7-7-7-7-7-7-7-7-7-7/-|


************************************

| /  Slide up

************************************

P.S
This is my First tab, so any comments , or any mistakes you picked up, please email me 
xRockerdooDx@hotmail.com
Thank you!
I hope you enjoyed.
Suggest correction
comments
print report bad tab
8 comments total. Showing first comments.
0 reply
fluffyraptor22 50 Aug 18, 2010 02:33 AM

tab threshold

+1 reply
alyssaeisman 41 Oct 12, 2010 11:25 PM

i was playing through it and it sounded different too me... so i tried just doing 5050 instead of a 50050 and it sounded a bit smoother to me... idk if this is even a correction... but id like to hear your thoughts.

+1 reply
alyssaeisman 41 Oct 12, 2010 11:30 PM

forget that i was just hearing it wrong. yous mastered this tab! good job! thanks!

guest
You may want to rate the tab now too:
select rating
Wanna post a correction for this tab? Suggest correction