Oops, an error
Loading. Please wait.

We Are Sex Bob-Omb Chords

version 1
version 1

Whole song

Interactive

50,910 views 27 this week
3 commentsread comments
1 2 3 4 5
x 7
add to favorites
launch autoscroll
font size
0
reset
transpose
0
reset
simplify chords
display chords
guitar tuner
Autoscroll
slow
fast
+/-
esc
set tempo
stop
Help us to improve Ultimate-Guitar.com Take our survey!
×
Difficulty
intermediate
Tuning: Standard

[Chords]
       B      D       A       A9      E       F#
e|-------|-------|-------|-------|-------|--------|
B|-------|-------|-------|-------|-------|--------|
G|---4---|---7---|-------|---2---|---1---|--------|
D|---4---|---7---|---7---|---2---|---2---|---4----|
A|---2---|---5---|---7---|-------|---2---|---4----|
e|-------|-------|---5---|-------|-------|---2----|

[Verse]
e|--------------------------------------------|
B|--------------------------------------------|
G|--------------------------------------------|
D|-----6-6-6-6-6-6-6-6-6-7-7-7-7-7-7-7-7------| (x4)
A|--------------------------------------------|
e|--------------------------------------------|

(Transition chords)
(F#) x3
(E) x3

[Post chorus]
[Intro/Main chords] (x3)
(B) (x16)
[Intro/Main Chords]
(B) (x8)
[Intro/Main Chords] (except change B to A9)
(B)(x16)
[Transition chords]
[Intro/Main Chords] (x4)

[Bridge] 
(around 1:04 in the song)
(A9) (x3) 
(D) (x2) 
(A)(x1)
[Main Chords] (x1) 

[Then this little riff]
e|--------------------------------------------------------------------------|
B|--------------------------------------------------------------------------|
G|---2------------12-12--12--12-------9-9-9-9----------2--------------------|
D|---x---x8-------x--x---x---x--------x-x-x-x----7-----x--x8----------------|
A|---2------------10-10--10--10-------7-7-7-7----x-----2--------------------|
E|-----------------------------------------------5--------------------------|
 
(B) (x16)
(A9) (x8) 
(B) (x8) 
(D) (x8) 
(B) (x8) 
(A9) (x8) 
(E) (x8)
[Main Chords] (x4)

[Ending]
(B) (x6) (with breaks), slide to (D) (x1), then play (B) with breaks until end of song.
Suggest correction
comments
print report bad tab
3 comments total.
0 reply
Pacifica14 10 Aug 25, 2010 02:44 PM

On the bridge, it should go

(B) x16
(A9) x8
(B) x8
(D) x8
(B) x8
(A9) x8
(F#) x4
(E) x4

0 reply
Pacifica14 10 Aug 26, 2010 07:50 PM

Verse

e |--------------------------------------------|
B |--------------------------------------------|
G |--------------------------------------------|
D |-----5-5-5-5-5-5-5-5-5-6-6-6-6-6-6-6-6------| x4
A |--------------------------------------------|
E |--------------------------------------------|

0 reply
Pacifica14 10 Aug 26, 2010 07:50 PM

e|--------------------------------------------------------------------------|
B|--------------------------------------------------------------------------|
G|---2------------12-12--12--12-------9-9-9-9----------2--------------------|
D|---x---x8-------x--x---x---x--------x-x-x-x----7-----x--x8----------------|
A|---4------------10-10--10--10-------7-7-7-7----x-----4--------------------|
E|-----------------------------------------------5--------------------------|

guest
You may want to rate the tab now too:
select rating
Wanna post a correction for this tab? Suggest correction