Oops, an error
Loading. Please wait.

We Are Sex Bob-Omb Tab

version 1
version 1

Whole song

Interactive

55,445 views 111 this week
7 commentsread comments
1 2 3 4 5
excellent!
x 14
add to favorites
launch autoscroll
font size
0
reset
how to read this tab
guitar tuner
Tab Pro tools
  • play this tab
  • loop segment
  • change instrument
  • show fretboard
  • metronome
×
Best way to learn
"We Are Sex Bob-omb"
Autoscroll
slow
fast
+/-
esc
set tempo
stop
Contributor
Difficulty
novice
=======================================
              Sex Bob-Omb
          We Are Sex Bob-Omb
"Scott Pilgrim vs. The World" sountrack
=======================================

Tabbed by Pedro Macedo, A.K.A. Linkerman
Comments and ratings are very much appreciated!
E-mails to "o_samaritano-hellboy(at)sapo.pt"

Standard tuning


e|-------------------|
B|-------------------|
G|-------------------| x4
D|----------7----7---|
A|-99999999-5-77-5-7-|
E|-77777777---55---5-|

  "Laminate the stasis..."
e|------------------------------------------------|
B|------------------------------------------------|
G|------------------------------------------------|
D|----------------------------------12121212-9999-|
A|-9999999999999999-9-9-9-9-9-9-9-9-10101010-7777-|
E|-7777777777777777-7-7-7-7-7-7-7-7---------------|

[00:28]                 x3
e||---------------------||------------------|
B||o-------------------o||------------------|
G||---------------------||------------------|
D||-----------7----7----||------------------|
A||o-99999999-5-77-5-7-o||-9999999999999999-|
E||--77777777---55---5--||-7777777777777777-|

e|-------------------|------------------|
B|-------------------|------------------|
G|-------------------|------------------|
D|----------7----7---|------------------|
A|-99999999-5-77-5-7-|-9999999999999999-|
E|-77777777---55---5-|-7777777777777777-|

[00:46]
e|--------------------------------------------------|
B|--------------------------------------------------|
G|--------------------------------------------------|
D|----------7----7--------------------12121212-9999-|
A|-77777777-5-77-5-7-9999999999999999-10101010-7777-|
E|-55555555---55---5-7777777777777777---------------|

[00:54]
e|-------------------|
B|-------------------|
G|-------------------| x4
D|----------7----7---|
A|-99999999-5-77-5-7-|
E|-77777777---55---5-|

[01:05]
e|--------------------------------------------------|
B|--------------------------------------------------|
G|--------------------------------------------------|
D|----------7----7--------------------12121212-9999-|
A|-77777777-5-77-5-7-9999999999999999-10101010-7777-|
E|-55555555---55---5-7777777777777777---------------|

[01:13]
e|-77777777------------------------------------|
B|-77777777------------------------------------|
G|-88888888------------------------------------|
D|-99999999------------------------------------|
A|-99999999-9999999999999999-77777777-99999999-|
E|-77777777-7777777777777777-55555555-77777777-|

[01:26]
e|--------------------------------|
B|--------------------------------|
G|--------------------------------|
D|-77777777--------------------99-|
A|-55555555-99999999-7777-4444-77-|
E|----------77777777-5555-2222----|

[01:34]                 x3
e||---------------------||---------------------------------|
B||o-------------------o||---------------------------------|
G||---------------------||---------------------------------|
D||-----------7----7----||---------------------------------|
A||o-99999999-5-77-5-7-o||-9-9-9-9-9-9-9-9-9-9-9-9-9-9-9-9-|
E||--77777777---55---5--||-7-7-7-7-7-7-7-7-7-7-7-7-7-7-7-7-|
comments
print report bad tab
7 comments total. Showing first comments.
+2 reply
Jugador96 wrote on November 26 2010, 01:36 pm

great job on the tabs. it sounds so much better than the other one

+6 reply
DiscomfortSitty wrote on August 20 2011, 12:56 pm

YOU ARE SEX BOB OMG AND YOU MAKE ME NOT WANNA THINK ABOUT DEATH AND GET SAD AND STUFF BECAUSE YOU MAKE GOOD TABS!!!!!!!!!!!

0 reply
Krypt666 wrote on August 10 2013, 03:47 pm

Hell yes thanks for the tabs man :)

I want to post or [tab]
guest
You may want to rate the tab now too:
select rating
Please do not post tabs as comments. Select "correction" instead!