Oops, an error
Loading. Please wait.

We Are Sex Bob-Omb Tab

version 1
version 1

Whole song

Interactive

57,996 views 102 this week
7 commentsread comments
1 2 3 4 5
excellent!
x 15
add to favorites
launch autoscroll
font size
0
reset
how to read this tab
guitar tuner
Autoscroll
slow
fast
+/-
esc
set tempo
stop
Help us to improve Ultimate-Guitar.com Take our survey!
×
Author
Difficulty
novice
=======================================
              Sex Bob-Omb
          We Are Sex Bob-Omb
"Scott Pilgrim vs. The World" sountrack
=======================================

Tabbed by Pedro Macedo, A.K.A. Linkerman
Comments and ratings are very much appreciated!
E-mails to "o_samaritano-hellboy(at)sapo.pt"

Standard tuning


e|------------------------------------|
B|------------------------------------|
G|------------------------------------| x4
D|-------------------7---------7------|
A|-9-9-9-9-9-9-9-9---5---7-7---5---7--|
E|-7-7-7-7-7-7-7-7-------5-5-------5--|

  "Laminate the stasis..."
e|----------------------------------------------------------------------------------------|
B|----------------------------------------------------------------------------------------|
G|----------------------------------------------------------------------------------------|
D|-------------------------------------------------------------------12-12-12-12--9-9-9-9-|
A|-9-9-9-9-9-9-9-9-9-9-9-9-9-9-9-9---9---9---9---9---9---9---9---9---10-10-10-10--7-7-7-7-|
E|-7-7-7-7-7-7-7-7-7-7-7-7-7-7-7-7---7---7---7---7---7---7---7---7------------------------|

[00:28]                                 x3
e||-------------------------------------||-----------------------------------|
B||o-----------------------------------o||-----------------------------------|
G||-------------------------------------||-----------------------------------|
D||--------------------7---------7------||-----------------------------------|
A||o-9-9-9-9-9-9-9-9---5---7-7---5---7-o||-9-9-9-9-9-9-9-9-9-9-9-9-9-9-9-9---|
E||--7-7-7-7-7-7-7-7-------5-5-------5--||-7-7-7-7-7-7-7-7-7-7-7-7-7-7-7-7---|

e|-------------------------------------|------------------------------------|
B|-------------------------------------|------------------------------------|
G|-------------------------------------|------------------------------------|
D|-------------------7---------7-------|------------------------------------|
A|-9-9-9-9-9-9-9-9---5---7-7---5---7---|---9-9-9-9-9-9-9-9-9-9-9-9-9-9-9-9--|
E|-7-7-7-7-7-7-7-7-------5-5-------5---|---7-7-7-7-7-7-7-7-7-7-7-7-7-7-7-7--|

[00:46]
e|---------------------------------------------------------------------------------------------|
B|---------------------------------------------------------------------------------------------|
G|---------------------------------------------------------------------------------------------|
D|-------------------7---------7-----------------------------------------12-12-12-12--9-9-9-9--|
A|-7-7-7-7-7-7-7-7---5---7-7---5---7---9-9-9-9-9-9-9-9-9-9-9-9-9-9-9-9---10-10-10-10--7-7-7-7--|
E|-5-5-5-5-5-5-5-5-------5-5-------5---7-7-7-7-7-7-7-7-7-7-7-7-7-7-7-7-------------------------|

[00:54]
e|-------------------------------------|
B|-------------------------------------|
G|-------------------------------------| x4
D|-------------------7---------7-------|
A|-9-9-9-9-9-9-9-9---5---7-7---5---7---|
E|-7-7-7-7-7-7-7-7-------5-5-------5---|

[01:05]
e|--------------------------------------------------------------------------------------------|
B|--------------------------------------------------------------------------------------------|
G|--------------------------------------------------------------------------------------------|
D|-------------------7---------7-----------------------------------------12-12-12-12--9-9-9-9-|
A|-7-7-7-7-7-7-7-7---5---7-7---5---7---9-9-9-9-9-9-9-9-9-9-9-9-9-9-9-9---10-10-10-10--7-7-7-7-|
E|-5-5-5-5-5-5-5-5-------5-5-------5---7-7-7-7-7-7-7-7-7-7-7-7-7-7-7-7------------------------|

[01:13]
e|-7-7-7-7-7-7-7-7-----------------------------------------------------------------------|
B|-7-7-7-7-7-7-7-7-----------------------------------------------------------------------|
G|-8-8-8-8-8-8-8-8-----------------------------------------------------------------------|
D|-9-9-9-9-9-9-9-9-----------------------------------------------------------------------|
A|-9-9-9-9-9-9-9-9---9-9-9-9-9-9-9-9-9-9-9-9-9-9-9-9---7-7-7-7-7-7-7-7---9-9-9-9-9-9-9-9-|
E|-7-7-7-7-7-7-7-7---7-7-7-7-7-7-7-7-7-7-7-7-7-7-7-7---5-5-5-5-5-5-5-5---7-7-7-7-7-7-7-7-|

[01:26]
e|-------------------------------------------------------------|
B|-------------------------------------------------------------|
G|-------------------------------------------------------------|
D|-7-7-7-7-7-7-7-7-----------------------------------------9-9-|
A|-5-5-5-5-5-5-5-5---9-9-9-9-9-9-9-9---7-7-7-7---4-4-4-4---7-7-|
E|-------------------7-7-7-7-7-7-7-7---5-5-5-5---2-2-2-2-------|

[01:34]                                 x3
e||--------------------------------------||------------------------------------------------|
B||o------------------------------------o||------------------------------------------------|
G||--------------------------------------||------------------------------------------------|
D||--------------------7---------7-------||------------------------------------------------|
A||o-9-9-9-9-9-9-9-9---5---7-7---5---7--o||-9--9--9--9--9--9--9--9--9--9--9--9--9--9--9--9-|
E||--7-7-7-7-7-7-7-7-------5-5-------5---||-7--7--7--7--7--7--7--7--7--7--7--7--7--7--7--7-|
Suggest correction
comments
print report bad tab
7 comments total. Showing first comments.
+2 reply
Jugador96 10 wrote on November 26 2010, 01:36 pm

great job on the tabs. it sounds so much better than the other one

+6 reply
DiscomfortSitty 10 wrote on August 20 2011, 12:56 pm

YOU ARE SEX BOB OMG AND YOU MAKE ME NOT WANNA THINK ABOUT DEATH AND GET SAD AND STUFF BECAUSE YOU MAKE GOOD TABS!!!!!!!!!!!

0 reply
Krypt666 10 wrote on August 10 2013, 03:47 pm

Hell yes thanks for the tabs man :)

guest
You may want to rate the tab now too:
select rating
Wanna post a correction for this tab? Suggest correction