Oops, an error
Loading. Please wait.

We Are Sex Bob-Omb Bass Tab

version 2
version 2

Whole song

Interactive

4,998 views 9 this week
no commentswrite comment
1 2 3 4 5
2 more votes to show rating
add to favorites
launch autoscroll
font size
0
reset
guitar tuner
Autoscroll
slow
fast
+/-
esc
set tempo
stop
Help us to improve Ultimate-Guitar.com Take our survey!
×
Author
4/4 Rock, Fast Hard. Sloppy
WE ARE SEX BOB-OMB!!!! 1-2-3-4!!!!


Opening Riff:
G------------------------------------------------------------------|
D------------------------------------------------------------------|x2
A--2--2--2--2--5-0-0-5-0-0----------2--2--2--2--5-0-0-5-0-0--------|
E------------------------------------------------------------------|

VERSE
G------------------------------------------------|
D------------------------------------------------|x2
A--5--5--5--5--6--6--6--6--5--5--5--5--6--6--6--6|
E------------------------------------------------|

G-------------------------------------------------------------------------|
D-------------------------------------------------------------------------|
A--1010101010101010-77777777-2--2--2--2-5-0-0-5-0-0-2--2--2--2-5-0-0-5-0-0|
E-------------------------------------------------------------------------|

Riff
G---------------------------------------------------------------------|
D---------------------------------------------------------------------|
A-2-2-2-2-5-0-0-5-0-2-2-2-2-2-2-2-2--2-2-2-2-5-0-0-5-0-2-2-2-2-2-2-2-2|
E---------------------------------------------------------------------|

G-------------------------------------------------------------|
D-------------------------------------------------------------|
A--0-0-0-0-5-0-0-5-0-2-2-2-2-2-2-2-2-1010101010101010-77777777|
E-------------------------------------------------------------|

G-----------------------------------------------------------|
D-----------------------------------------------------------|x2
A--2--2--2--2--5-0-0-5-0--------2--2--2--2--5-0-0-5-0-------|
E-----------------------------------------------------------|

G----------------------------------------------------------------|
D----------------------------------------------------------------|
A--0-0-0-0-5-0-0-5-0-2-2-2-2-2-2-2-2--1010101010101010-777-0-00--|
E----------------------------------------------------------------|

G------------------------|
D------------------------|
A--2--2--2--2--2--2--2--2|
E------------------------|

Bridge
G----------------------------------------------------------------|
D----------------------------------------------------------------|
A-2-2-2-2-2-2-2-2-2-2-2-2-2-2-2-2-0-0-0-0-0-0-0-0-2-2-2-2-2-2-2-2|
E----------------------------------------------------------------|

G--------------------------------------------------------|
D--------------------------------------------------------|
A-5-5-5-5-5-5-5-5-2-2-2-2-2-2-2-2-2----------------------|
E----------------------------------2--2--2--2--1111-0-0--|

G-------------------------------------------------------------|
D-------------------------------------------------------------|x2
A----2--2--2--2--5-0-0-5-0--------2--2--2--2--5-0-0-5-0-------|
E-------------------------------------------------------------|

ENDING

G---------------------------------------------|
D---------------------------------------------|
A--2--2--2--2--2--2--2--2--2--2--2--2-2/7/5|--|
E---------------------------------------------|

G------------------------------------------|
D------------------------------------------|
A--2-2-2-2-2-2-2-2-2-2-2-2-2-2-2-2-2-2-2-2/|
E------------------------------------------|
Suggest correction
Give kudos to tab author, rate the tab!
1 2 3 4 5
comments
print report bad tab
guest
You may want to rate the tab now too:
select rating
Wanna post a correction for this tab? Suggest correction