Oops, an error
Loading. Please wait.

Anarchy In The Uk Bass Tab

version 1
version 1
44,031 views 84 this week
6 commentsread comments
1 2 3 4 5
x 9
add to favorites
launch autoscroll
font size
0
reset
guitar tuner
Autoscroll
slow
fast
+/-
esc
set tempo
stop
Help us to improve Ultimate-Guitar.com Take our survey!
×
Author
Song: Anarchy In The UK
Band: Sex Pistols
Tabbed by: Kris Morton

This is my own interpretation of the song - the way I play it, not the way done by 
Sid Vicious on Never Mind The Bollocks.


[Intro]

G|-------------------------------------------------------------------------------|
D|-5-5-5-5-5-5-5-5--3-3-3-3-3-3-3-3--2-2-2-2-2-2-2-2-2--0-0-0-0-0-0-0-0-0-0-0----|
A|-------------------------------------------------------------------------------|
E|-------------------------------------------------------------------------------|
       'Right Now . . . hahahahaha . . .'


[Verse]

G|-------------------------------------------|
D|--------------------------3--2-------------|    
A|-3-3-3-3-3-3-3-3-3-3-3-3-------------------|        
E|-------------------------------------------|(play as many times as necessary)


[Chorus]

G|-------------------------------------------------------------------------------------|
D|-5-5-5-5-5-5-5-5-5-5-5-5-5-5-5--3-3-3-3-3-3-3-3--2-2-2-2-2-2--0-0-0-0-0-0-0-0-0-0----|
A|-------------------------------------------------------------------------------------|
E|-------------------------------------------------------------------------------------|
        'Cause I...wanna be...anarchy...'


[Chorus Ending]

G|----------------------------------------|
D|----------------------------------------|
A|--0-0-0-0-0-0-0-0-0-0-0--3-2------------|
E|----------------------------------------|


[Verse]

G|-------------------------------------------|
D|--------------------------3--2-------------|    
A|-3-3-3-3-3-3-3-3-3-3-3-3-------------------|        
E|-------------------------------------------|(play as many times as necessary)


[Chorus]

G|-------------------------------------------------------------------------------------|
D|-5-5-5-5-5-5-5-5-5-5-5-5-5-5-5--3-3-3-3-3-3-3-3--2-2-2-2-2-2--0-0-0-0-0-0-0-0-0-0----|
A|-------------------------------------------------------------------------------------|
E|-------------------------------------------------------------------------------------|
        'Cause I...wanna be...anarchy...'


[Guitar Solo]

G|-------------------------------------------------------------------|
D|-------------------------------3-3-3-3-3-3-3-3---------------------|
A|--3-3-3-3-3-3-3-3-3-3-3-3-3-3-------------------3-3-3-3-3-3-3-3----|  
E|-------------------------------------------------------------------|


[Verse]

G|-------------------------------------------|
D|--------------------------3--2-------------|    
A|-3-3-3-3-3-3-3-3-3-3-3-3-------------------|        
E|-------------------------------------------|(play as many times as necessary)


[Chorus]

G|-------------------------------------------------------------------------------------|
D|-5-5-5-5-5-5-5-5-5-5-5-5-5-5-5--3-3-3-3-3-3-3-3--2-2-2-2-2-2--0-0-0-0-0-0-0-0-0-0----|
A|-------------------------------------------------------------------------------------|
E|-------------------------------------------------------------------------------------|
        'Cause I...wanna be...anarchy...'
Suggest correction
comments
print report bad tab
6 comments total. Showing first comments.
0 reply
Wiegraf 50 Oct 11, 2004 12:00 AM

Not bad.

+1 reply
aibrubusfosusej 31 Oct 24, 2005 05:00 PM

How do you know it's not the way Sid plays it? do you know the right way or something?

0 reply
The Lunatic 63 Feb 14, 2006 03:24 AM

SOOK MA DONG!

guest
You may want to rate the tab now too:
select rating
Wanna post a correction for this tab? Suggest correction