Oops, an error
Loading. Please wait.

Anarchy In The Uk Bass Tab

version 2
version 2
10,489 views 21 this week
3 commentsread comments
1 2 3 4 5
x 7
add to favorites
launch autoscroll
font size
0
reset
guitar tuner
Autoscroll
slow
fast
+/-
esc
set tempo
stop
Help us to improve Ultimate-Guitar.com Take our survey!
×
Difficulty
intermediate
This is the way I play this song in my band. I've added some extra fills
so dont go mental if you dont understand it, its definitely right if you
play it at the right speed. And its quite a complicated song to order so
sorry about the structure.

Standard tuning E A D G

Intro
G---------------------------------|
D-5-5-5-5-5-5-5-5-5-5-5-5-5-5-5-5-|
A---------------------------------|
E---------------------------------|

G-----------------------------------------------|
D-3-3-3-3-3-3-3-3-0-2-2-0-0---------------------|
A---------------------------3-3-3-3-3-3-3-3-3-3-|
E-----------------------------------------------|

Verse
G----------------------------|
D-----------------------3-2--|
A-3---0-3---0-3---0-3--------| X3
E---3-----3-----3------------|

G--------------------------|
D-----------------------3--|
A-3---0-3---0-3---0-3------|
E---3-----3-----3----------|

Chorus
G---------------------------------|
D-5-5-5-5-5-5-5-5-5-5-5-5-5-5-5-5-|
A---------------------------------|
E---------------------------------|

G------------------------------------------------------|
D-3-3-3-3-3-3-3-3-0-0-2-2-0-0----------------------3-2-|
A-----------------------------3---0-3---0-3---0-3------|
E-------------------------------3-----3-----3----------|

G---------------|
D---------------|
A-3---0-3---0-3-|
E---3-----3-----|

G------------------------------|
D------------------------------|
A-3-3-3-3-3-3-3-3-3-3-3-3------|
E------------------------------|

Solo 1
G-------------------------------------|
D-------------------------------------|
A-5-5-5-5-5-5-5-5-6-7-7-7-7-7-7-7-7-6-| X3
E-------------------------------------|

G-------------------------------------------------|
D-----------------4h5-5-5-4h5-5-5-----------------|
A-5-5-5-5-5-5-5-5---------------------------------|
E---------------------------------2h3-3-3-2h3-3-3-|


Solo 2
G-----------------------------------------------|
D-------------------5-4-------------------------|
A-5-----5-----5---------------------------------| X4
E---5-7---5-7---5-7-----------------------------|

Last Verse (is this the M.P.R.A…)
G------------------------|
D-------------------3-2--|
A--3-0-0-3-0-0-3-0-0-----| X4
E-----3-----3-----3------|

Chorus Fill
G---------------------------|
D-----------------------3-2-|
A-3---0-3---0-3---0-3-------| X2
E---3-----3-----3-----------|


Last Chorus
G-------------------------|
D-4h5-5-5-5-5-4h5-5-5-5-5-|
A-------------------------|
E-------------------------|

G------------------------------------------------------|
D-2h3-3-3-3-3-3-3-3-0-0-2-2-0-0--------------------3-2-|
A------------------------------3---0-3---0-3---0-3-----|
E-------------------------------3-----3-----3----------|

Ending
G----------------------------|
D-----------------------3-2--|
A-3---0-3---0-3---0-3--------|
E---3-----3-----3------------|

G----------------------|
D----------------------|
A-3---0-3---0-3---0-3~-|
E---3-----3-----3------|

Song Order
Intro
Verse
Chorus
Verse
Chorus
1st Bridge
Verse
Chorus
2nd Bridge
Last Verse
Chorus
Chorus Fill
Chorus
Chorus Fill
Last Chorus X 3
Ending
Suggest correction
comments
print report bad tab
3 comments total.
0 reply
TJ1991 1,993 Mar 13, 2006 09:49 AM

great tab! i rated 5 star so god knows who gave it 1!

0 reply
lardcake 10 Nov 16, 2007 01:59 AM

Sounds all right to me, nothing wrong that I can tell - very well done!

0 reply
xxxxChrisTxxxx 9,431 Apr 30, 2013 04:44 PM

It's a good version.
Just been listening to the song and I can hear some extra fills....
Around the 'no dogs body' end of first chorus there's this -

G|-----0-----------------|
D|---2---2---------------|
A|-3-------3-------------|
E|-----------5-5-5-5-5-5-|


And end of guitar solo 1, instead of
-2h3-3-3-2h3-3-3-

it goes something along these lines -
G|----------------------|
D|-4h5-------------3-5--|
A|-----5-2---2-3-5------|
E|---------3------------|

guest
You may want to rate the tab now too:
select rating
Wanna post a correction for this tab? Suggest correction