Oops, an error
Loading. Please wait.

Anarchy In The Uk Bass Tab

version 3
version 3
40,029 views 39 this week
4 commentsread comments
1 2 3 4 5
excellent!
x 23
add to favorites
launch autoscroll
font size
0
reset
guitar tuner
Autoscroll
slow
fast
+/-
esc
set tempo
stop
Help us to improve Ultimate-Guitar.com Take our survey!
×
Author
Difficulty
Intro:
G:|-------------------------------------------------------------------|
D:|--5-5-5-5-5-5-5-5-5-5-5-5-5-5-5-5-3-3-3-3-3-3-3-3-2-2-2-2-0-0-0-0--|
A:|-------------------------------------------------------------------|
E:|-------------------------------------------------------------------|

Pre verse:
G:|-------------------------------------------------------------------|
D:|-------------------------------------------------------------------|
A:|--3-3-0-3-3-3-0-3-3-3-0-3-3-3-0-3-3-3-0-3-3-3-0-3-3-3-0-3-3-3-0-3--|
E:|-------------------------------------------------------------------|

Verse:
G:|-----------------------------------|
D:|--------------------------3-3-2-2--|  3x, then:
A:|--3-3-0-3-3-3-0-3-3-3-0-3----------|
E:|-----------------------------------|

G:|-----------------------------------|
D:|-----------------------------------|
A:|--3-3-0-3-3-3-0-3-3-3-0-3-3-3-0-3--|
E:|-----------------------------------|

Chorus:
G:|-------------------------------------------------------------------|
D:|--5-5-5-5-5-5-5-5-5-5-5-5-5-5-5-5-3-3-3-3-3-3-3-3-2-2-2-2-0-0-0-0--|
A:|-------------------------------------------------------------------|
E:|-------------------------------------------------------------------|

G:|-------------------------------------------------------------------|
D:|--------------------------3-3-2-2----------------------------------|
A:|--3-3-0-3-3-3-0-3-3-3-0-3---------3-3-0-3-3-3-0-3-3-3-0-3-3-3-0-3--|
E:|-------------------------------------------------------------------|

Verse:
G:|-----------------------------------|
D:|--------------------------3-3-2-2--|  3x, then:
A:|--3-3-0-3-3-3-0-3-3-3-0-3----------|
E:|-----------------------------------|

G:|-----------------------------------|
D:|-----------------------------------|
A:|--3-3-0-3-3-3-0-3-3-3-0-3-3-3-0-3--|
E:|-----------------------------------|

Chorus:
G:|-------------------------------------------------------------------|
D:|--5-5-5-5-5-5-5-5-5-5-5-5-5-5-5-5-3-3-3-3-3-3-3-3-2-2-2-2-0-0-0-0--|
A:|-------------------------------------------------------------------|
E:|-------------------------------------------------------------------|

G:|-------------------------------------------------------------------|
D:|--------------------------3-3-2-2----------------------------------|
A:|--3-3-0-3-3-3-0-3-3-3-0-3---------3-3-0-3-3-3-0-3-3-3-0-3-3-3-0-3--|
E:|-------------------------------------------------------------------|


During Solo:
G:|-------------------------------------------------------------------|
D:|-------------------------------------------------------------------|
A:|--5-5-5-5-5-5-5-5-7-7-7-7-7-7-7-7-5-5-5-5-5-5-5-5-7-7-7-7-7-7-7-7--|
E:|-------------------------------------------------------------------|

G:|-------------------------------------------------------------------|
D:|--------------------------------------------------5-5-5-5-5-5-5-5--|
A:|--5-5-5-5-5-5-5-5-7-7-7-7-7-7-7-7-5-5-5-5-5-5-5-5------------------|
E:|-------------------------------------------------------------------|

G:|-------------------------------------------|
D:|--5-5-5-5-5-5-5-5--------------------------|
A:|-----------------5-5-5-5-5-5---------------|
E:|-----------------------------3-3-3-3-3-3-3-|

Verse:
G:|-----------------------------------|
D:|--------------------------3-3-2-2--|  3x, then:
A:|--3-3-0-3-3-3-0-3-3-3-0-3----------|
E:|-----------------------------------|

G:|-----------------------------------|
D:|-----------------------------------|
A:|--3-3-0-3-3-3-0-3-3-3-0-3-3-3-0-3--|
E:|-----------------------------------|

Chorus:
G:|-------------------------------------------------------------------|
D:|--5-5-5-5-5-5-5-5-5-5-5-5-5-5-5-5-3-3-3-3-3-3-3-3-2-2-2-2-0-0-0-0--|
A:|-------------------------------------------------------------------|
E:|-------------------------------------------------------------------|

G:|-------------------------------------------------------------------|
D:|--------------------------3-3-2-2----------------------------------|
A:|--3-3-0-3-3-3-0-3-3-3-0-3---------3-3-0-3-3-3-0-3-3-3-0-3-3-3-0-3--|
E:|-------------------------------------------------------------------|


Bridge (4x):
G:|-------------------------------------|
D:|--------------------------5-5-4-4----|
A:|--5-5-5-5-5-5-5-5-5-5-5-5------------|
E:|-------------------------------------|

Verse:
G:|-----------------------------------|
D:|--------------------------3-3-2-2--|  3x, then:
A:|--3-3-0-3-3-3-0-3-3-3-0-3----------|
E:|-----------------------------------|

G:|-----------------------------------|
D:|-----------------------------------|
A:|--3-3-0-3-3-3-0-3-3-3-0-3-3-3-0-3--|
E:|-----------------------------------|

Chorus: x4
G:|-------------------------------------------------------------------|
D:|--5-5-5-5-5-5-5-5-5-5-5-5-5-5-5-5-3-3-3-3-3-3-3-3-2-2-2-2-0-0-0-0--|
A:|-------------------------------------------------------------------|
E:|-------------------------------------------------------------------|

G:|-------------------------------------------------------------------|
D:|-------------------------3-3-2-2-----------------------------------|
A:|--3-3-0-3-3-3-0-3-3-3-0-3---------3-3-0-3-3-3-0-3-3-3-0-3-3-3-0-3--|
E:|-------------------------------------------------------------------|
Suggest correction
comments
print report bad tab
4 comments total. Showing first comments.
0 reply
IzzieVicious 105 wrote on November 14 2009, 06:49 am

Spot on!
Also one of the world's greatest songs.
Thanks a lot :)

-2 reply
Ruination 61 wrote on June 25 2010, 10:08 pm

Awesome tab, But i noticed a slight error, the verse should go


G:|-----------------------------------|
D:|--------------------------3-0-2-0--|
A:|--3-3-0-3-3-3-0-3-3-3-0-3----------|
E:|-----------------------------------|

0 reply
Jordo141 473 wrote on March 2 2011, 12:10 pm

Verse is

G:|---------------------------------|
D:|------------------------3-3-2-2--|
A:|--3-3-0-3-3-3-0-3-3-3-0----------|
E:|---------------------------------|

Otherwise perfect!

guest
You may want to rate the tab now too:
select rating
Please do not post tabs as comments. Select "correction" instead!