Oops, an error
Loading. Please wait.

Bodies Tab

version 1
version 1

Whole song

Interactive

27,529 views 60 this week
no commentswrite comment
1 2 3 4 5
x 7
add to favorites
launch autoscroll
font size
0
reset
how to read this tab
guitar tuner
×
Best way to learn
"Bodies"
Autoscroll
slow
fast
+/-
esc
set tempo
stop
Author
[Intro], let ring
e|----------------|---------------|
B|----------------|---------------|
G|----------------|---------------|
D|-------2-----0--|-------2--(2)--|
A|----------------|---------------|
E|--2/3-----3-----|--2/3------0---|

e|---------------|-------------------||
B|------0-----0--|------0--0--0------||
G|--2b-----2--2--|--2b--2--2--2--2b--||
D|---------------|-------------------||
A|---------------|-------------------||
E|---------------|-------------------||

[Verse]
 4x
e||-------------------------|--------------------------||
B||-------------------------|--------------------------||
G||*------------------------|-------------------------*||
D||*------------------------|-------------------------*||
A||---7/9--9--9--7/9--9--9--|--7/9--9--9-----9--9--9---||
E||---5/7--7--7--5/7--7--7--|--5/7--7--7-----7--7--7---||

e||-------------------------|-------------------------|
B||-------------------------|-------------------------|
G||*------------------------|-------------------------|
D||*------------------------|-------------------------|
A||---3/4--4--4--3/4--4--4--|--3/4--4--4-----4--4--9--|
E||---1/6--6--6--1/6--6--6--|--1/2--2--2-----2--2--7--|

e|-------------------------|--------------------------||
B|-------------------------|--------------------------||
G|-------------------------|-------------------------*||
D|-------------------------|-------------------------*||
A|--9-----9--9--7/9--9--9--|--7/9--9--9-----9--9--9---||
E|--7-----7--7--5/7--7--7--|--5/7--7--7-----7--7--7---||

[Chorus]
e||----------------------------|--------------------------|
B||----------------------------|--------------------------|
G||*---------------------------|--------------------------|
D||*---------------------------|--------------------------|
A||----5--5--5--5--5--5--5--5--|--7--7--7--7--7--7--7--7--|
E||----3--3--3--3--3--3--3--3--|--5--5--5--5--5--5--5--5--|

e|------------------------|--------------------------||
B|------------------------|--------------------------||
G|------------------------|-------------------------*||
D|--6/7--7--7--6/7--7--7--|--6/7--7--7-----7--7--7--*||
A|--4/5--5--5--4/5--5--5--|--4/5--5--5-----5--5--5---||
E|------------------------|--------------------------||

e|--------------------------||
B|--------------------------||
G|--------------------------||
D|--------------------------||
A|--7--7--7--7--7--7--7--7--||
E|--5--5--5--5--5--5--5--5--||


************************************

| (n)  Ghost note
| /    Slide up
| b    Bend
| *    Natural harmonic

************************************
Suggest correction
comments
print report bad tab
guest
You may want to rate the tab now too:
select rating
Wanna post a correction for this tab? Suggest correction