Oops, an error
Loading. Please wait.

Did You No Wrong Tab

version 2
version 2

Whole song

Interactive

2,992 views 24 this week
no commentswrite comment
1 2 3 4 5
please rate
add to favorites
launch autoscroll
font size
0
reset
how to read this tab
guitar tuner
Tab Pro tools
  • play this tab
  • loop segment
  • change instrument
  • show fretboard
  • metronome
×
Best way to learn
"Did You No Wrong"
Autoscroll
slow
fast
+/-
esc
set tempo
stop
Contributor
Intro and Chorus.
-----------------------------------------------------------------------------------|
-----------------------------------------------------------------------------------|
--4--2-----------------------------------------------------------------------------|
--0--0--4--2---2--2--2--2----------------------------------------------------------|
--------0--0---0--0--0--0-----9--9--11--9--9--9--11--9--9--9--11--9--9--9--11--9---|
------------------------------7--7---7--7--7--7---7--7--7--7---7--7--7--7---7--7---|

Verse (Guitar 1).
------------------------------------------------------|
------------------------------------------------------|
------------------------------------------------------|
--------------------------9--9--9--9--9--9--9--9------|
--9--9--9--9--7--7--7--7--7--7--7--7--7--7--7--7------|
--7--7--7--7--5--5--5--5------------------------------|

Verse (Guitar 2).
--------------------------------------|
--12---10---12------------------------|
--11----9---11---12---13--------------|
---------------------------14---------|
--------------------------------------|
--------------------------------------|

Guitar Break
--------------------|----------------------|--------------------------|
--------------------|----------------------|--------------------------|
---------4--4----4--|----------2--2----2---|-----------9--9-------9---|
---------4--4----4--|----------2--2----2---|-----------9--9-------9---|
--5--6--------6-----|---3--4--------4------|---10--11--------11-------|
--------------------|----------------------|--------------------------|

Transcribed by Guitarpunk1977.
comments
We did not receive enough feedback on this tab! Please rate:
print report bad tab
1 2 3 4 5
I want to post or [tab]
guest
You may want to rate the tab now too:
select rating
Please do not post tabs as comments. Select "correction" instead!