Oops, an error
Loading. Please wait.

Emi Bass Tab

version 1
version 1

Whole song

Interactive

3,474 views 3 this week
no commentswrite comment
1 2 3 4 5
please rate
add to favorites
launch autoscroll
font size
0
reset
guitar tuner
Autoscroll
slow
fast
+/-
esc
set tempo
stop
Help us to improve Ultimate-Guitar.com Take our survey!
×
Author
EMI
From: Nevermind The Bollocks Heres the Sex Pistols
Tabbed by: David W.
EMI is so cool

intro
G----------------------------------------------|
D----------------------------------------------|
A--88888888888888888---|-----------------------|
E----------------------|--66666-6-8-1111-1-3---|Repeats

Verse 1, 0:19
G--------------------------      OR  G-----------------------|
D--------------------------       /  D-----------3333333-----|
A-------------8888888------         A--1111111---------------| ( ones not elevens )
E--6666666----------------- 4x       E-----------------------|

0:31                                                        ( ones not elevens)
G----------------------|-----------                  OR  G---------------|---------|
D----------------------|-----------                   /  D-111-----------|-11-33---|
A--666-----------------|----66-88--(play on 4th time)   A-------1111111-|----------|
E-------6666666-(4x)---|-----------                      E---------------|---------|


Verse 2, 0:45
G--------------------------|
D--------------------------|
A--------------------------|
E--6-666666-1111-1-3-------|Repeat 4x (on the 4th time dont play the 3)

0:57
G-----------------------|------------|
D-----------------------|------------|
A--666------------------|----66-88---|(play on 4th time)
E-------6666666-(4x)----|------------|

bridge, 1:11
G----------------------------------------------------------------------------------|
D----------------------------------------------------------------------------------|
A----------------------------------------------------------------------------------|
E--8888888-3333333-8888-4444-6666666-8888888-3333333-2222222-11111111111111111111--|

solo, 1:29
G----------------------|
D----------------------|
A----------------------|
E--6666666-10-10-8-8---|Repeats 4x

1:42
G-----------------------------|--------------------------|---|
D-----------------------------|--------------------------|---|
A----------------8888888-(3X)-|-----------------8888-6-6-|---|
E--6666666--------------------|--6666666-----------------|---|Repeat 2x

2:08, muffle the 1st three 8's
G----------------|-----------|
D----------------|-----------|
A----------------|----66-88--|(play on 4th time)
E--888m-666666---|-----------|

2:22
G----------------------------|
D----------------------------|
A----------------------------|
E--6666666--1111111----------|Repeats 4x

2:35, muffle in the 1st three 8's
G---------------------|-----------------|
D---------------------|-----------------|
A---------------------|---6-------------|
E--888m-6666666---8x--|--------6----6---|

---< listin for order and timing >---< Leave me a good rating! >
Suggest correction
What's this?
You can suggest a correction to this tab. Community and Mods will review your correction and vote to approve or reject it.
comments
We did not receive enough feedback on this tab! Please rate:
print report bad tab
1 2 3 4 5
guest
You may want to rate the tab now too:
select rating
Please do not post tabs as comments. Select "correction" instead!