Oops, an error
Loading. Please wait.

God Save The Queen Bass Tab

version 2
version 2

Whole song

Interactive

44,505 views 120 this week
8 commentsread comments
1 2 3 4 5
x 33
add to favorites
launch autoscroll
font size
0
reset
guitar tuner
Autoscroll
slow
fast
+/-
esc
set tempo
stop
Help us to improve Ultimate-Guitar.com Take our survey!
×
this band was to good to be true

God Save the Queen
The Sex Pistols
Nevermind the Bollocks, Here's the Sex Pistols

email:punkgothrockdude@yahoo.com

[Intro]
G|----------------------------------------------------------------------------------------|
D|----------------------------------------------------------------------------------------|
A|-11-12-12-12-12-12-12-12-11-12-12-12-12-12-12-11-12-12-11-12-12-11-12-12-12-12-12-12-12-|
E|----------------------------------------------------------------------------------------|

G|----------------------|
D|----------------------|
A|-0---------------5-4-5|  x3
E|----------------------|

G|---------------------------------|
D|---------------------------------|
A|---------------------------------|
E|-4-5-5-5-5-5-5-5-4-5-5-5-5-5-5-5-|

[Verse]
G|---------------------------|
D|---------------------------|
A|-0-0-0-0-0-0-0-0-5-5-5-4-5-|  x3
E|---------------------------|

G|---------------------------------|
D|---------------------------------|
A|---------------------------------|
E|-4-5-5-5-5-5-5-5-4-5-5-5-5-5-5-5-|

G|---------------------------|
D|---------------------------|
A|-0-0-0-0-0-0-0-0-5-5-5-4-5-| x3
E|---------------------------|

G|---------------------------------|
D|---------------------------------|
A|---------------------------------|
E|-4-5-5-5-5-5-5-5-4-5-5-5-5-5-5-5-|

[Chorus]
G|---------------------------------------|
D|---------------------------------------|
A|-7-7-7------6-7-7-7-6-7-7-7-7-7-7------|
E|------7-7-7----------------------7-7-7-|

[Solo]
G|--------------------------------|
D|-4-4-4-4-4-4-4-4----------------|
A|----------------2-2-2-2-2-2-2-2-| x3
E|--------------------------------|

G|-------------------------------|
D|-4-4-4-4-4-4-4-4-2-2-2-2-2-2-2-|
A|-------------------------------|
E|-------------------------------|

[Outro]
G|-----------------|
D|-----------------| x3
A|-5-5-5-5-4-4-2-2-|
E|-----------------|

G|-----------------|
D|-----------------|
A|-0-0-0-0-0-0-0-0-|
E|-----------------|

G|-----------------|
D|-----------------| x3
A|-5-5-5-5-4-4-2-2-|
E|-----------------|

G|-----------------|
D|-----------------|
A|-0-0-0-0-0-0-0-0-|
E|-----------------|

G|-----------------|
D|-----------------|
A|-5-5-5-5-4-4-2-2-| x3
E|-----------------|

G|-----------------------------------------------|
D|-----------------------------------------------|
A|-----------------------------------------------|
E|-4-5-5-5-5-5-5-5-4-5-5-5-5-5-5-4-5-5-5-5-5-5-5-|
Suggest correction
comments
print report bad tab
8 comments total. Showing first comments.
+1 reply
fourstringpunk 162 Dec 20, 2004 12:00 AM

ace tab

0 reply
The Lunatic 63 Feb 14, 2006 12:40 PM

Tab tab tab tab tab...

Lush wee tab...i am an anti-christ

0 reply
slayerofangels 10 Sep 17, 2006 02:48 PM

gr8 tab man

guest
You may want to rate the tab now too:
select rating
Wanna post a correction for this tab? Suggest correction