Oops, an error
Loading. Please wait.

God Save The Queen Tab

version 4
version 4
97,941 views 90 this week
18 commentsread comments
1 2 3 4 5
x 47
add to favorites
launch autoscroll
font size
0
reset
how to read this tab
guitar tuner
Autoscroll
slow
fast
+/-
esc
set tempo
stop
Help us to improve Ultimate-Guitar.com Take our survey!
×
[Intro]
e|------------------------------------------------------------------------------------------|
B|------------------------------------------------------------------------------------------|
G|-13/14-14-14--14-14------13/14-14-14--14-14------13/14-14-14--13/14-14-14--13/14-14-14-14-|
D|-13/14-14-14--14-14------13/14-14-14--14-14------13/14-14-14--13/14-14-14--13/14-14-14-14-|
A|-11/12-12-12--12-12------11/12-12-12--12-12------11/12-12-12--11/12-14-14--11/12-12-12-12-|
E|------------------------------------------------------------------------------------------|

e|-------------------|--------------------------------|
B|-------------------|--------------------------------|
G|-------7--6--6/7---|--------------------------------|
D|-7~----7--6--6/7---|-6/7-7-7-7-7-------6/7-7-7-7-7--|
A|-7~----5--4--4/5---|-6/7-7-7-7-7-------6/7-7-7-7-7--|
E|-5~----------------|-4/5-5-5-5-5-------4/5-5-5-5-5--|
    Play X3                Then this

e|----------------------------|-------------------------------|
B|----------------------------|-------------------------------|
G|-------------------7--6--7--|-------------------------------|X2
D|-7-7-7-7-7-7-7-7---7--6--7--|-6/7-7-7-7-7-------6/7-7-7-7-7-|
A|-7-7-7-7-7-7-7-7---5--4--5--|-6/7-7-7-7-7-------6/7-7-7-7-7-|
E|-5-5-5-5-5-5-5-5------------|-4/5-5-5-5-5-------4/5-5-5-5-5-|
   . . . . . . . .                        End of Riff
             X3                         x1

e|------------------------------------------------------------|
B|------------------------------------------------------------|
G|-9--9-----------8/9-9-9--8/9-9-9---9--9-----------9-9---9---|
D|-9--9--9-9-9-9--8/9-9-9--8/9-9-9---9--9--9-9-9-9--9-9---9---|x2
A|-7--7--9-9-9-9--6/7-7-7--6/7-7-7---7--7--9-9-9-9--7-7---7---|
E|-------7-7-7-7---------------------------7-7-7-7------------|

e|-------------------|----------------------------------------|
B|-------------------|----------------------------------------|
G|-------7--6--6/7---|------------9-9-9-9-9-------------------|
D|-7~----7--6--6/7---|-7-7-7-7-7--9-9-9-9-9--7-7-7-7-7--------|
A|-7~----5--4--4/5---|-7-7-7-7-7--7-7-7-7-7--7-7-7-7-7--------|
E|-5~----------------|-5-5-5-5-5-------------5-5-5-5-5--------|
    Play X2                   Then this

e|----------------------------|-------------------------------|
B|----------------------------|-------------------------------|
G|-------------------7--6--7--|-------------------------------|X2
D|-7-7-7-7-7-7-7-7---7--6--7--|-6/7-7-7-7-7-------6/7-7-7-7-7-|
A|-7-7-7-7-7-7-7-7---5--4--5--|-6/7-7-7-7-7-------6/7-7-7-7-7-|
E|-5-5-5-5-5-5-5-5------------|-4/5-5-5-5-5-------4/5-5-5-5-5-|
  . . . . . . . .                 End of riff
             X3                         x1

e|----------|-------------------------------|
B|----------|-------------------------------|
G|--7--6--7-|-------------------------------|X2
D|--7--6--7-|-6/7-7-7-7-7-------6/7-7-7-7-7-|
A|--5--4--5-|-6/7-7-7-7-7-------6/7-7-7-7-7-|
E|----------|-4/5-5-5-5-5-------4/5-5-5-5-5-|

e|-------------------|----------------------------------------|
B|-------------------|----------------------------------------|
G|-------7--6--6/7---|------------9-9-9-9-9-------------------|
D|-7~----7--6--6/7---|-7-7-7-7-7--9-9-9-9-9--7-7-7-7-7--------|
A|-7~----5--4--4/5---|-7-7-7-7-7--7-7-7-7-7--7-7-7-7-7--------|
E|-5~----------------|-5-5-5-5-5-------------5-5-5-5-5--------|
    Play X2                   Then this

Dont have solo yet.. sorry.

 [After Solo]
e|-------------------|----------------------------------------|
B|-------------------|----------------------------------------|
G|-------7--6--6/7---|------------9-9-9-9-9-------------------|
D|-7~----7--6--6/7---|-7-7-7-7-7--9-9-9-9-9--7-7-7-7-7--------|
A|-7~----5--4--4/5---|-7-7-7-7-7--7-7-7-7-7--7-7-7-7-7--------|X3
E|-5~----------------|-5-5-5-5-5-------------5-5-5-5-5--------|
    Play X3                   Then, this

Thats about it! Thanks!

Cokments-A_F_Brian@hotmail.com
AIM:thedecline456
MSN:A_F_Brian@hotmail.com

************************************

| /  Slide up
| ~  Vibrato
| .  Palm mute

************************************
Suggest correction
comments
print report bad tab
18 comments total. Showing first comments.
0 reply
eat 20 Aug 18, 2004 12:00 AM

did u get this from the book?

+3 reply
Meatontheface 10 Sep 30, 2005 11:29 AM

Britain rocks

0 reply
smash_your_mom 10 Jan 06, 2006 01:26 PM

brilliant tab 5*s

guest
You may want to rate the tab now too:
select rating
Wanna post a correction for this tab? Suggest correction