Oops, an error
Loading. Please wait.

God Save The Queen Tab

version 5
version 5
6,942 views 1 this week
1 commentread comment
1 2 3 4 5
please rate
add to favorites
launch autoscroll
font size
0
reset
how to read this tab
guitar tuner
Autoscroll
slow
fast
+/-
esc
set tempo
stop
Help us to improve Ultimate-Guitar.com Take our survey!
×
Author
Difficulty
novice
-------------------------------------------------------------------------------
                            God Save The Queen - Sex Pistols
-------------------------------------------------------------------------------

*=palm mute
h=hammer on
s=slide
Intro:

e|-----------------------------------------------------------------------------|
B|-9-9-10-10-10-10-------------------------------------------------------------|
G|-9-9-9---9--9--9-------------------------------------------------------------|
D|-----------------------------------------------------------------------------|
A|-----------------------------------------------------------------------------|
E|-----------------------------------------------------------------------------|

then-

e|-----------------------------------------------------------------------------|
B|-----------------------------------------------------------------------------|
G|--------6-6-7-7-6-7-7---------6-6-7-7-6-7-7----------6-6-7-7-6-7-7-----------|
D|--------6-6-7-7-6-7-7-7-7-7-7-6-6-7-7-6-7-7-7-7-7-7-6-6-7-7-6-7-7------------|
A|7-7-7-7-4-4-5-5-4-5-5-7-7-7-7-4-4-5-5-4-5-5-7-7-7-7-4-4-5-5-4-5-5------------|
E|5-5-5-5----------------5-5-5-5----------------5-5-5-5------------------------|

e|-----------------------------------------------------------------------------|
B|-----------------------------------------------------------------------------|
G|-----------------------------------------------------------------------------|
D|-----------------------------------------------------------------------------|
A|---7-7-7-7-7-7-6-6-7-7-7-7-7-7-7-7-------------------------------------------|
E|---5-5-5-5-5-5-4-4-5-5-5-5-5-5-5-5-------------------------------------------|

Verse:

e|-----------------------------------------------------------------------------|
B|-----------------------------------------------------------------------------|
G|--------------6-6-7-7-6-7-7--------------------------------------------------|
D|--------------6-6-7-7-6-7-7--------------------------------------------------|
A|--7-7-7-7-7-7-4-4-5-5-4-5-5--------------------------------------------------|
E|--5-5-5-5-5-5----------------------------------------------------------------|x3
      *   *  *   *  *  *
   "God save the queen"
e|-----------------------------------------------------------------------------|
B|-----------------------------------------------------------------------------|
G|-----------------------------------------------------------------------------|
D|-----------------------------------------------------------------------------|
A|---7-7-7-7-7-7-6-6-7-7-7-7-7-7-7-7-------------------------------------------|
E|---5-5-5-5-5-5-4-4-5-5-5-5-5-5-5-5-------------------------------------------|

e|-----------------------------------------------------------------------------|
B|-----------------------------------------------------------------------------|
G|--------------6-6-7-7-6-7-7--------------------------------------------------|
D|--------------6-6-7-7-6-7-7--------------------------------------------------|
A|--7-7-7-7-7-7-4-4-5-5-4-5-5--------------------------------------------------|
E|--5-5-5-5-5-5----------------------------------------------------------------|x3
      *   *  *   *  *  *
e|-----------------------------------------------------------------------------|
B|-----------------------------------------------------------------------------|
G|-----------------------------------------------------------------------------|
D|-----------------------------------------------------------------------------|
A|---7-7-7-7-7-7-6-6-7-7-7-7-7-7-7-7-------------------------------------------|
E|---5-5-5-5-5-5-4-4-5-5-5-5-5-5-5-5-------------------------------------------|

Chorus:

e|-----------------------------------------------------------------------------|
B|-----------------------------------------------------------------------------|
G|-9-9-9-------8-9-9-8-9-9-9-9--9-9-9--------8-9-9-8-9-------------------------|
D|-9-9-9-9-9-9-8-9-9-8-9-9-9-9--9-9-9-9-9-9-8-9-9-8-9--------------------------|
A|-7-7-7-9-9-9-6-7-7-6-7-7-7-7--7-7-7-9-9-9-6-7-7-6-7--------------------------|
E|--------7-7-7-------------------------7-7-7----------------------------------|

e|-----------------------------------------------------------------------------|
B|-----------------------------------------------------------------------------|
G|-9-9-9-------9-9-9--------9-9-9-------9-9-9-9-9-9-9--------------------------|
D|-9-9-9-9-9-9-9-9-9-9-9-9-9-9-9-9-9-9-9-9-9-9-9-9-9---------------------------|
A|-7-7-7-9-9-9-7-7-7-9-9-9-7-7-7-9-9-9-7-7-7-7-7-7-7---------------------------|
E|-------7-7-7--------7-7-7-------7-7-7----------------------------------------|
         "no future,    no future             no future     for you"

then-

e|-----------------------------------------------------------------------------|
B|-----------------------------------------------------------------------------|
G|--------------6-6-7-7-6-7-7--------------------------------------------------|
D|--------------6-6-7-7-6-7-7--------------------------------------------------|
A|--7-7-7-7-7-7-4-4-5-5-4-5-5--------------------------------------------------|
E|--5-5-5-5-5-5----------------------------------------------------------------|x3
  "God save the queen

e|-----------------------------------------------------------|
B|-----------------------------------------------------------|
G|-------------------------------------------0h1h2-----------|
D|---------------9-9-9-9-9-9---------------------------------|
A|-7-7-7-7-7-7-7-7-7-7-7-7-7-7-7-7-7-7-7-7-------------------|
E|-5-5-5-5-5-5-5--------------5-5-5-5-5-5-5------------------|
   "We love our queen"                     "god saves"

Verse:

e|-----------------------------------------------------------------------------|
B|-----------------------------------------------------------------------------|
G|--------------6-6-7-7-6-7-7--------------------------------------------------|
D|--------------6-6-7-7-6-7-7--------------------------------------------------|
A|--7-7-7-7-7-7-4-4-5-5-4-5-5--------------------------------------------------|
E|--5-5-5-5-5-5----------------------------------------------------------------|x3
      *   *  *   *  *  *
   "God save the queen"

e|-----------------------------------------------------------------------------|
B|-----------------------------------------------------------------------------|
G|-----------------------------------------------------------------------------|
D|-----------------------------------------------------------------------------|
A|---7-7-7-7-7-7-6-6-7-7-7-7-7-7-7-7-------------------------------------------|
E|---5-5-5-5-5-5-4-4-5-5-5-5-5-5-5-5-------------------------------------------|

e|-----------------------------------------------------------------------------|
B|-----------------------------------------------------------------------------|
G|--------------6-6-7-7-6-7-7--------------------------------------------------|
D|--------------6-6-7-7-6-7-7--------------------------------------------------|
A|--7-7-7-7-7-7-4-4-5-5-4-5-5--------------------------------------------------|
E|--5-5-5-5-5-5----------------------------------------------------------------|x3
      *   *  *   *  *  *
e|-----------------------------------------------------------------------------|
B|-----------------------------------------------------------------------------|
G|-----------------------------------------------------------------------------|
D|-----------------------------------------------------------------------------|
A|---7-7-7-7-7-7-6-6-7-7-7-7-7-7-7-7-------------------------------------------|
E|---5-5-5-5-5-5-4-4-5-5-5-5-5-5-5-5-------------------------------------------|

Chorus:

e|-----------------------------------------------------------------------------|
B|-----------------------------------------------------------------------------|
G|-9-9-9-------8-9-9-8-9-9-9-9--9-9-9--------8-9-9-8-9-------------------------|
D|-9-9-9-9-9-9-8-9-9-8-9-9-9-9--9-9-9-9-9-9-8-9-9-8-9--------------------------|
A|-7-7-7-9-9-9-6-7-7-6-7-7-7-7--7-7-7-9-9-9-6-7-7-6-7--------------------------|
E|--------7-7-7-------------------------7-7-7----------------------------------|

e|-----------------------------------------------------------------------------|
B|-----------------------------------------------------------------------------|
G|-9-9-9-------9-9-9--------9-9-9-------9-9-9-9-9-9-9--------------------------|
D|-9-9-9-9-9-9-9-9-9-9-9-9-9-9-9-9-9-9-9-9-9-9-9-9-9---------------------------|
A|-7-7-7-9-9-9-7-7-7-9-9-9-7-7-7-9-9-9-7-7-7-7-7-7-7---------------------------|
E|-------7-7-7--------7-7-7-------7-7-7----------------------------------------|
         "no future,    no future             no future     for you"

then-

e|-----------------------------------------------------------------------------|
B|-----------------------------------------------------------------------------|
G|--------------6-6-7-7-6-7-7--------------------------------------------------|
D|--------------6-6-7-7-6-7-7--------------------------------------------------|
A|--7-7-7-7-7-7-4-4-5-5-4-5-5--------------------------------------------------|
E|--5-5-5-5-5-5----------------------------------------------------------------|x3
  "God save the queen

e|-----------------------------------------------------------|
B|-----------------------------------------------------------|
G|-----------------------------------------------------------|
D|---------------9-9-9-9-9-9---------------------------------|
A|-7-7-7-7-7-7-7-7-7-7-7-7-7-7-7-7-7-7-7-7-------------------|
E|-5-5-5-5-5-5-5--------------5-5-5-5-5-5-5------------------|
   "We love our queen"                     "god saves"

Solo:

e|-2-2-2-2-2-0-0------------2-2-2-2-2-2-0-0------------2-2-2-2-2-0-0------|
B|-2-2-2-2-2-0-0-4-4-4-4-4--2-2-2-2-2-2-0-0-4-4-4-4-4-2-2-2-2-2-0-0-------|
G|---------------4-4-4-4-4-------------------4-4-4-4-4--------------------|
D|---------------4-4-4-4-4-------------------4-4-4-4-4--------------------|
A|------------------------------------------------------------------------|
E|------------------------------------------------------------------------|

e|-----------2-2-2-2-2-0-0---------------------------------------|
B|-4-4-4-4-4-2-2-2-2-2-0-0-4-4-5-4-4-5-4-4-5-4-4-5-5s------------|
G|-4-4-4-4-4---------------4-4-4-4-4-4-4-4-4-4-4-4---------------|
D|-4-4-4-4-4---------------4-4-4-4-4-4-4-4-4-4-4-4---------------|
A|---------------------------------------------------------------|
E|---------------------------------------------------------------|

End-

e|-----------------------------------------------------------------------------|
B|-----------------------------------------------------------------------------|
G|--------------6-6-7-7-6-7-7--------------------------------------------------|
D|--------------6-6-7-7-6-7-7--------------------------------------------------|
A|--7-7-7-7-7-7-4-4-5-5-4-5-5--------------------------------------------------|
E|--5-5-5-5-5-5----------------------------------------------------------------|x3
  "God save the queen

e|-----------------------------------------------------------|
B|-----------------------------------------------------------|
G|-----------------------------------------------------------|
D|---------------9-9-9-9-9-9---------------------------------|
A|-7-7-7-7-7-7-7-7-7-7-7-7-7-7-7-7-7-7-7-7-------------------|
E|-5-5-5-5-5-5-5--------------5-5-5-5-5-5-5------------------|
   "We love our queen"                     "god saves"


e|---------------------------------------------------------------------------------|
B|---------------------------------------------------------------------------------|
G|-7-7-7-7-7-7-6-6-4-4-7-7-7-7-7-7-6-6-4-4-7-7-7-7-7-7-6-6-4-4-7-7-7-7-7-7-7-------|
D|-7-7-7-7-7-7-6-6-4-4-7-7-7-7-7-7-6-6-4-4-7-7-7-7-7-7-6-6-4-4-7-7-7-7-7-7-7-------|
A|-5-5-5-5-5-5-4-4-2-2-5-5-5-5-5-5-4-4-2-2-5-5-5-5-5-5-4-4-2-2-7-7-7-7-7-7-7-------|
E|----------------------------------------------------------------5-5-5-5-5-5-5----|

      "no                 future      no                      future     no              
     future    for you"

This is the whole song hope it helps
Suggest correction
What's this?
You can suggest a correction to this tab. Community and Mods will review your correction and vote to approve or reject it.
comments
We did not receive enough feedback on this tab! Please rate:
print report bad tab
1 2 3 4 5
1 comment total.
0 reply
Nirvana fan 148 wrote on August 17 2006, 07:24 am

good tab but some bits wrong

guest
You may want to rate the tab now too:
select rating
Please do not post tabs as comments. Select "correction" instead!