Oops, an error
Loading. Please wait.

God Save The Queen Tab

version 6
version 6
19,732 views 6 this week
1 commentread comment
1 2 3 4 5
worth learning
x 3
add to favorites
launch autoscroll
font size
0
reset
how to read this tab
guitar tuner
Tab Pro tools
  • play this tab
  • loop segment
  • change instrument
  • show fretboard
  • metronome
×
Best way to learn
"God Save The Queen"
Autoscroll
slow
fast
+/-
esc
set tempo
stop
Contributor
Difficulty
INTRO
                                x2
|---------------------------------||-------------------------------|
|---------------------------------||-------------------------------|
|---------------------------------||-------------------------------|
|----5/6--6--6----6--6--6-------  ||----5/6--6--6--6/7--7--7-------|
|----5/6--6--6----6--6--6-------  ||----5/6--6--6--6/7--7--7-------|
|----3/4--4--4----4--4--4-------  ||----3/4--4--4--4/5--5--5-------|

|--------------------------------|
|--------------------------------|
|--------------------------------|
|----5/6--6--6-----6--6--6-------|
|----5/6--6--6-----6--6--6-------|
|----3/4--4--4-----4--4--4-------|

PRE-VERSE
                                          x3                                x2
|-----------------------------------------||---------------------------------|
|-----------------------------------------||---------------------------------|
|------------------------9--9--9--7-------||---------------------------------|
|------------------------9--9--9--7-------||----5/6--6--6------6--6--6-------|
|----6-6-6-6---6--6------7--7--7-4--5-----||----5/6--6--6------6--6--6-------|
|----4-4-4-4---4--4-----------------------||----3/4--4--4------4--4--4-------|

VERSE  (x2)
                                          x3                                  x2
|--------------------------------------------||---------------------------------|
|--------------------------------------------||---------------------------------|
|-------------------------6--6--6--5--6------||---------------------------------|
|-------------------------6--6--6--5--6------||----5/6--6--6------6--6--6-------|
|----6--6--6--6--6--6--6--4--4--4--3--4------||----5/6--6--6------6--6--6-------|
|----4--4--4--4--4--4--4---------------------||----3/4--4--4------4--4--4-------|
     pm.................

CHORUS  (x2)

|------------------------------------------||-----------------------------------|
|------------------------------------------||-----------------------------------|
|----8--8----------7/8--8--8--7/8--8--8----||----8--8----------7/8----8----8----|
|----8--8--8--8----7/8--8--8--7/8--8--8----||----8--8--8--8----7/8----8----8----|
|----6--6--8--8----5/6--6--6--5/6--6--6----||----6--6--8--8----5/6----6----6----|
|----------6--6----------------------------||----------6--6---------------------|

PRE-VERSE 2  "God save the queen..."
                                          x2   
|-------------------------------------------|
|-------------------------------------------|
|--------------------------6-6-6--7--7------|
|--------------------------6-6-6--7--7------|
|----6-6-6-6---6-6---------4-4-4--5--5------|
|----4-4-4-4---4-4--------------------------|
                                                                   3rd time
|-------------------------------------------------------------------------------|
|-------------------------------------------------------------------------------|
|--------------------------8--8--8--8----8--8--8-----------drum-----------------|
|--------------------------8--8--8--8----8--8--8-----------solo-----------------|
|----6----6--6----6--6--6--6--6--6--6----6--6--6--6-----------------------------|
|----4----4--4----4--4--4-------------------------4-----------------------4-----|

VERSE (x2)
CHORUS (x2)
PRE-VERSE II

SOLO (PLAYED OVER F#5 AND B5)
                                             x4
|--------2-2-2---------------------------------|
|----1/2-2-2-2--------4----4--5h4--5h4---x-----|
|---------------------4----4--4----4-----x-----|
|-----------------4-4-4----4--4----4-----x-----|
|----------------------------------------------|
|----------------------------------------------|




PRE-VERSE II

OUTRO ("NO FUTURE !!!!!!!!" ...)  (x3)
                                       x3    Only th 1st and 2nd times, 3rd time : INTRO
|----------------------------------------|  |---------------------------------|
|----------------------------------------|  |---------------------------------|
|----7----7----7-7-7-7--6----4-----------|  |---------------------------------|
|----7----7----7-7-7-7--6----4-----------|  |----7-7-7-x-7---x-7---7---x-7----|
|----5----5----5-5-5-5--4----2-----------|  |----7-7-7-x-7---x-7---7---x-7----|
|----------------------------------------|  |----5-5-5-x-5---x-5---5---x-5----|
comments
We did not receive enough feedback on this tab! Please rate:
print report bad tab
1 2 3 4 5
1 comment total.
0 reply
TheWyldeMan8 wrote on January 24 2010, 07:25 am

most of the tab is off

I want to post or [tab]
guest
You may want to rate the tab now too:
select rating
Please do not post tabs as comments. Select "correction" instead!