Oops, an error
Loading. Please wait.

God Save The Queen Tab

version 7
version 7
2,364 views 9 this week
no commentswrite comment
1 2 3 4 5
please rate
add to favorites
launch autoscroll
font size
0
reset
how to read this tab
guitar tuner
Autoscroll
slow
fast
+/-
esc
set tempo
stop
Help us to improve Ultimate-Guitar.com Take our survey!
×
Author
Difficulty
novice
The Sex Pistols' best song
the tuning is on standard (EADGBe)
please rate and comment
I don't know the solo to this
yet but I will have it soon!!!!
The Song goes in order

Legend: z/x\f:slide down or up
|------|: Palm Mute PM PM
b:Bend h:Hammer on (not used on this song)
p:Pull off (not used on this song)

Intro:
e|-------------------------------------------------|
B|-------------------------------------------------|
G|8/9-9-9-8/9-9-9-8/9-9-9-8/9-9-9-8/9-9-9-8/9-9-9--|
D|6/7-7-7-6/7-7-7-6/7-7-7-6/7-7-7-6/7-7-7-6/7-7-7--|
A|-------------------------------------------------|
E|-------------------------------------------------|

Verses
e|------------------|------------------------------|
B|------------------|------------------------------|
D|-2----7-7-7-6-7-7-|<--x3 then---6-7-7-7-6-7-7-7--|
A|-0----5-5-5-4-5-5-| ------------6-7-7-7-6-7-7-7--|
E|------------------|-------------4-5-5-5-4-5-5-5--|

Bridge
e|----------------------------|
B|----------------------------|
G|----------------------------|
D|9-9-9-------8-9-9-9-8-9-9---|
A|7-7-7-9-9-9-6-7-7-7-6-7-7---|
E|------7-7-7-----------------|

Chorus is same as the verse

Dont have the solo yet :( but this is the backing riif :D
e|--------------------|
B|--------------------|
G|6-6-6-6-6-----------|
D|4-4-4-4-4-4-4-4-4-4-|
A|----------2-2-2-2-2-|
E|--------------------|

OUTRO
e|--------------------------------------|
B|--------------------------------------|
G|--------------------------------------|           7
D|7-7-7-7-7-6-6-6-4-4-4-----------------| X3 End on 5
A|5-5-5-5-5-4-4-4-2-2-2-6-7-7-7-6-7-7-7-|
E|----------------------4-5-5-5-4-5-5-5-|

Order:
Intro
Verse
Bridge
Chorus
Verse
Bridge
Chorus
Solo
Chorus
Outro

Thats it :D Great song
shoot me an email at Dally.Hinojosa@yahoo.com
if you have any requests I tab metal and punk
PLEASE RATE AND COMMENT (If you rate it poor please comment why its bad)
Suggest correction
Give kudos to tab author, rate the tab!
1 2 3 4 5
comments
print report bad tab
guest
You may want to rate the tab now too:
select rating
Wanna post a correction for this tab? Suggest correction