Oops, an error
Loading. Please wait.

Great Rock And Roll Swindle Tab

version 2
version 2

Whole song

464 views 1 this week
no commentswrite comment
1 2 3 4 5
3 more votes to show rating
add to favorites
launch autoscroll
font size
0
reset
how to read this tab
guitar tuner
Autoscroll
slow
fast
+/-
esc
set tempo
stop
Help us to improve Ultimate-Guitar.com Take our survey!
×
-------------------------------------------------------------------------------
SONG NAME - 
The Great Rock 'n' Roll Swindle
BAND NAME-
Sex Pistols
-------------------------------------------------------------------------------
Tabbed by: Guitarpunk1977

Tuning: Standard 

Intro and Chorus.

e|-------------------|----------------------|---------------------------|
B|-------------------|----------------------|---------------------------|
G|-------------------|----------------------|------8--10--p--8-----8~---|
D|--8--8-------------|----------------------|--10---------------10------|
A|--6--6--10--10--8--|--10--10--8--8--6--6--|---------------------------|
E|---------8---8--6--|---8---8--6--6--4--4--|---------------------------|

e|--------------------------|--------------------------|
B|--------------------------|--------------------------|
G|--------------------------|--------------------------|
D|--8--8-----------------8--|--------------------------|
A|--6--6--10--10--8--10--6--|--8--8--8--8--8--8--8--8--|
E|---------8---8--6---8-----|--6--6--6--6--6--6--6--6--|

Verse.

e|----------------------|----------------------|----------------------|
B|----------------------|----------------------|----------------------|
G|----------------------|----------------------|----------------------|
D|----------------------|----------------------|----------------------|
A|--5\6--6--6--6--6--6--|--5\6--6--6--6--6--6--|--5\6--6--6--6--6--6--|
E|--3\4--4--4--4--4--4--|--3\4--4--4--4--4--4--|--3\4--4--4--4--4--4--|

e|----------------------|----------------------|----------------------|
B|----------------------|----------------------|----------------------|
G|----------------------|----------------------|----------------------|
D|----------------------|----------------------|----------------------|
A|--7\8--8--8--8--8--8--|--7\8--8--8--8--8--8--|--7\8--8--8--8--8--8--|
E|--5\6--6--6--6--6--6--|--5\6--6--6--6--6--6--|--5\6--6--6--6--6--6--|

Transcribed by Guitarpunk1977.

************************************
| / slide up
| \ slide down
| h hammer-on
| p pull-off
| ~ vibrato
| + harmonic
| x Mute note
| b Bend
| pb Pre-bend
| br Bend release
| pbr Pre-bend release
| brb Bend release bend
************************************
Suggest correction
Give kudos to tab author, rate the tab!
1 2 3 4 5
comments
print report bad tab
guest
You may want to rate the tab now too:
select rating
Wanna post a correction for this tab? Suggest correction