Oops, an error
Loading. Please wait.

Here We Go Again Tab

568 views 1 this week
no commentswrite comment
1 2 3 4 5
please rate
add to favorites
launch autoscroll
font size
0
reset
how to read this tab
guitar tuner
Tab Pro tools
  • play this tab
  • loop segment
  • change instrument
  • show fretboard
  • metronome
Autoscroll
slow
fast
+/-
esc
set tempo
stop
Contributor
Here we Go again
Sex Pistol
Tabed by ebda ws


Intro:
e------------------------------------------------------------------|
B------------------------------------------------------------------|
G---5-8-6-8^---5-8-6-8^---5-8-6-8^---5-8-6-8--8-8-8-6-8—8-8-8-6-8--|
D-6----------6----------6----------6-------------------------------|
A------------------------------------------------------------------|
E------------------------------------------------------------------|

Lick 1
e-------------------------------------------------------------|
B-------------------------------------------------------------|
G-5/6-6-6-6/8-8-8/10-8-8/6/5-5-5/6-8-6-5---6-5----------------|
D----------------------------------------8-----8-6-6h8-6h8-6--|
A-------------------------------------------------------------|
E-------------------------------------------------------------|

Lick 2
e---------------------|
B---------------------|
G---------------------|
D-8-8-6-6-5-5---------|
A-------------8-8-6-6-|
E---------------------|

Lick 3 ?( I didn”t sure bout this part)
e- -------------------------------------------------------|
B-14/15^-14/15^-14/15^-14/15^-12/13^-12/13^-12/13^-12/13^-|
G---------------------------------------------------------|
D---------------------------------------------------------|
A---------------------------------------------------------|
E---------------------------------------------------------|

e-------------------|
B-11-16-14-13-11-9--|
D-------------------|
A-------------------|
E-------------------|

Verse 1:
G#5                        D#5
Well I've seen you once or twice
G#5                       D#5
And I think you're rather nice
G#5                  D#5
Tell me what is your name
G#5               D#5 - D#5/D5\D#5 (Several times)
And will you come again

Verse 2:
G#5            D#5
How far can you spit
G#5              D#5
Is your voice like grit
G#5               D#5
Might seem out of tune
G#5                 D#5 -  D#5/D5\D#5(Several times)
But you'll love one day soon

Chorus 2x : ( Play with Lick 1)

C#5
Here we go here we go again
G#5
Here we go I just cannot pretend
D#5                    G#5
Here we go we're off again

Intro:

Verse 3:
G#5             D#5
Stop wasting my time
G#5             D#5
Get off of my line
G#5              D#5
What do you wanna ask
G#5                 D#5 -  D#5/D5\D#5 (Several times)
The sun shines out my ass

Verse 4:
G#5              D#5
Well I was never wrong
G#5              D#5   (Lick 2)
I wrote all the songs
G#5              D#5
The same old motor runs
G#5                 D#5 -  D#5/D5\D#5(Several times)
I ain't no rolling stone


Chorus + Lick 1

Intro :

And Then :
C#5*
Here we go here we go again
G#5*
Here we go I just cannot pretend
D#5*                    G#5
Here we go we're off again

Chorus + Lick 1 (1x)

Solo = Lick 1

Chorus + Lick 3

Any corrections, questions, suggestion, comments mail me at strumerjhon@yahoo.com
comments
We did not receive enough feedback on this tab! Please rate:
print report bad tab
1 2 3 4 5
I want to post or [tab]
guest
You may want to rate the tab now too:
select rating
Please do not post tabs as comments. Select "correction" instead!