Oops, an error
Loading. Please wait.

Holiday In The Sun Tab

4,608 views 3 this week
no commentswrite comment
1 2 3 4 5
1 last vote to show rating
add to favorites
launch autoscroll
font size
0
reset
how to read this tab
guitar tuner
Autoscroll
slow
fast
+/-
esc
set tempo
stop
Help us to improve Ultimate-Guitar.com Take our survey!
×
Author
Difficulty
novice
----------------------------------------------------------------------------
HOLIDAY IN THE SUN - Sex Pistols
----------------------------------------------------------------------------
Tabbed by: Geoff
Email: bergg23@hotmail.com

Here is a fast easy way to play one of the Pistols best songs.

	INTRO (Hold for about four seconds in between)

e|-2~~------2~~------2~~------2~~--------------------|
B|-3~~------3~~------3~~------3~~--------------------|
G|-2~~------2~~------2~~------2~~--------------------|
D|-0~~------0~~------0~~------0~~------PICKSLIDE-----|
A|-------------------------------------PICKSLIDE-----|
E|---------------------------------------------------|

	RIFF A

e|--------------------|         e|-------------------------|
B|--------------------| 	B|-------------------------|
G|--------------------|	        G|-------------------------|
D|--------------------|x3	D|-------------------------|
A|-1010997775-55555---|	        A|-1010997775-55555555555--|
E|--8-8775553-33333---|	        E|--8-8775553-33333333333--|

	VERSE

e|-------------------------------------------------------------------------|
B|-------------------------------------------------------------------------|
G|-------------------------------------------------------------------------|
D|-------------------------------------------------------------------------|
A|-55555555555502320-55555555555502320-55555555555502320-55555555555502320-|
E|-333333333333------333333333333------333333333333------333333333333------|
PM ************      ************      ************      ************

	CHORUS

e|---------------------------------------------------------|
B|---------------------------------------------------------|
G|-----------------------------4/5555-4/5555-4/5555-4/5555-|x2
D|-4/5555-4/5555-4/5555-4/5555-4/5555-4/5555-4/5555-4/5555-|
A|-4/5555-4/5555-4/5555-4/5555-2/3333-2/3333-2/3333-2/3333-|
E|-2/3333-2/3333-2/3333-2/3333-----------------------------|



	RIFF B (ONCE FOR EVERY LINE)

						e|---97----|
						B|-9-------|
						G|---------|
						D|---------|
						A|---------|
						E|---------|
Well they’re staring all night and they’re staring all day...
		I had no reason to Be here at all ...
	but now I gotta reason it’s no real reason...

	RIFF C

e|-------------------------------------------|
B|-------------------------------------------|
G|-------------------------------------------|x2
D|-99999999----------------------------------|
A|-77777777-555555556/77776/77776/77776/7777-|
E|----------333333334/55554/55554/55554/5555-|



	END	

e|-----------------------------------|
B|-----------------------------------|
G|-----------------------------------|
D|-----------------------------------|
A|-5555555555555555555-5/6-6/7-7/6~--|
E|-3333333333333333333-3/4-4/5-5/4~--|

INTRO X4
RIFF A
VERSE
CHORUS
RIFF A
VERSE
CHORUS
RIFF A
RIFF B
RIFF C
SOLO (SORRY DON’T HAVE)
CHORUS
FIRST PART OF RIFF A X8
END

	That’s it… if you have any questions/comments please email me or leave a comment.

PM= Palm Mute
| /  slide up
| \  slide down
| h  hammer-on
| p  pull-off
| ~  vibrato
| +  harmonic
| x  Mute note
============================================================================

Suggest correction
Give kudos to tab author, rate the tab!
1 2 3 4 5
comments
print report bad tab
guest
You may want to rate the tab now too:
select rating
Wanna post a correction for this tab? Suggest correction