Oops, an error
Loading. Please wait.

Lota Tab

20 views 1 this week
no commentswrite comment
1 2 3 4 5
3 more votes to show rating
add to favorites
launch autoscroll
font size
0
reset
how to read this tab
guitar tuner
Autoscroll
slow
fast
+/-
esc
set tempo
stop
Help us to improve Ultimate-Guitar.com Take our survey!
×
Esta cancion se debe tocar con cejillo un en el segundo espacio, por lo que
en las tablaturas el 0 indica en realidad el 2 espacio.


         INTRO A
e--3-----------2---0----2-----------0-----0---------------
b--3----3---------------3-----3--------3--1-----1---------
g-----0----0----------------2----2------------0----0------
d-----------------------------------------------------------
a-----------------------------------------------------------
e-----------------------------------------------------------

e-----------------------------------------------------------
b-3---1--0--1----3----------------------------------------
g-----------------------------------------------------------
d-----------------------------------------------------------
a-----------------------------------------------------------
e-----------------------------------------------------------

         INTRO B
e--3--------------2---0---0-------------------------------
b--3---3------3--3---1---0---1---------------------------
g----0---0--0-----------------0--1---3/4---3---1---------
d-----------------------------------------------------------
a-----------------------------------------------------------
e-----------------------------------------------------------

La introducción se hace tocando 2 veces la parte A y luego
2 veces la parte B


No existe melodía, que .......
Estrofa:
           G                 D                    C
e----------------------------------------------------------
b-----3------------3------------3----------3--------------
g---0---0-------2----2-------0---0------0---0------------
d-0-------0--0---------0--2--------2-----------2---------
a---------------------------------------3------------------
e-----------------------------------------------------------

el dolor en los........... ( por que si llueve en lota......)
e--0---1---3----0------------------------------------------
b--1---3---3------3---1-----------------------------------
g--------------------------2--------------------------------
d-----------------------------------------------------------
a-----------------------------------------------------------
e-----------------------------------------------------------
 Luego se sigue con el acompañamiento de la estrofa y se repite todo
desde la introducción

después de la segunada parte  viene esto

e--3--3/5--3--1--1---0----3--1-0------------------------
b--3--3/5--3--1--1---1----3-------3-1--------1----------
g-----------------------------------------0--2-------------
d-----------------------------------------------------------
a-----------------------------------------------------------
e-----------------------------------------------------------

e---3--3/5--3--1--1---0----3-----------------------------
b---3--3/5--3--1--1---1----3-----------------------------
b-----------------------------------------------------------
g-----------------------------------------------------------
d-----------------------------------------------------------
a-----------------------------------------------------------
e-----------------------------------------------------------

escuchando la cancion es facil ordenar la tablatura.....

saludos a lota esa hermosa cuidad..... en la que nunca he estado
Suggest correction
Give kudos to tab author, rate the tab!
1 2 3 4 5
comments
print report bad tab
guest
You may want to rate the tab now too:
select rating
Wanna post a correction for this tab? Suggest correction