Oops, an error
Loading. Please wait.

All Of Me tab

version 1
version 1

Whole song

Interactive

13 views 1 this week
no commentswrite comment
1 2 3 4 5
3 more votes to show rating
add to favorites
×
Save as Personal and add changes to this tab that will be seen only by you. Learn more ›
×
You can save this tab as Personal to edit and correct it or add notes. All changes will be seen only by you. Learn more »
launch autoscroll
font size
0
reset
how to read this tab
guitar tuner
edit
Autoscroll
slow
fast
+/-
esc
set tempo
stop
[Intro}

e|------------------------------------------------------------------------------------------------|
B|----------------------------------------1-------------------------------------------------------|
G|-------3-----------------------------3-----3-----2-----2----------------------------------------|
D|-------------------3--0--------------------------------------------4--0-------------------------|
A|------------------------------------------------------------------------------------------------|
E|------------------------------------------------------------------------------------------------|
   1  +  2  +  3  +  4  +   1  +  2  +  3  +  4  +  1  +  2  +  3  +  4  +  1  +  2  +  3  +  4  +

e|------------------------------------------------------------------------------------------------|
B|------------------------------------------------------------------------------------------------|
G|-------0--------------0-----------------1--0----------------------------------------------------|
D|-------------3--0--------------------0-----------3-----------------2--1-------------------------|
A|----------------------------------4-------------------------------------------------------------|
E|------------------------------------------------------------------------------------------------|
   1  +  2  +  3  +  4  +  1  +  2  +  3  +  4  +  1  +  2  +  3  +  4  +  1  +  2  +  3  +  4  +


[Verse]

            1                       2                       3                       4
e|--------|------------------------------------------------------------------------------------------------|
B|--------|------------------------------------------------------------------------------------------------|
G|--------|------------------------------------------------------------------------------------------------|
D|--------|-------3-----------3-----------3-----------3-----------3-----------3-----------3-----------3----|
A|--------|------------------------------------------------------------------------------------------------|
E|--------|------------------------------------------------------------------------------------------------|
   +  4  +  1  +  2  +  3  +  4  +  1  +  2  +  3  +  4  +  1  +  2  +  3  +  4  +  1  +  2  +  3  +  4  +


   5                       6                       7                       8
                                      F7       Bb6 
e|-------------------------------------1--------3-------------------------------------------------|
B|-------------------------------------1--------3-------------------------------------------------|
G|-------------------------------------2--------3-------------------------------------------------|
D|-------3-----------3-----------3-----1--------3-------------------------------------------------|
A|-------------------------------------3--------1-------------------------------------------------|
E|-------------------------------------1----------------------------------------------------------|
   1  +  2  +  3  +  4  +  1  +  2  +  3  +  4  +  1  +  2  +  3  +  4  +  1  +  2  +  3  +  4  +


   9                       10                      11                      12
   Bb6               F+7   Bbmaj7                  D9                Eb7   D7 
e|-3-----3-----3-----------1-----1-----1-----1-----------------------6-----5-----5-----5-----5-----|
B|-3-----3-----3-----2-----3-----3-----3-----3-----5-----5-----5-----8-----7-----7-----7-----7-----|
G|-3-----3-----3-----2-----2-----2-----2-----2-----5-----5-----5-----6-----5-----5-----5-----5-----|
D|-3-----3-----3-----1-----3-----3-----3-----3-----4-----4-----4-----8-----7-----7-----7-----7-----|
A|-1-----1-----1-----0-----1-----1-----1-----1-----5-----5-----5-----6-----5-----5-----5-----5-----|
E|-------------------1-----------------------------------------------------------------------------|
   1  +  2  +  3  +  4  +  1  +  2  +  3  +  4  +  1  +  2  +  3  +  4  +  1  +  2  +  3  +  4  +


   13                      14                      15                      16
   G9                                              Gm7/C           C#dim7  Cm7
e|-------------------------------------------------3-----3-----3-----3-----3-----3-----3-----3-----|
B|-10----10----10----10----10----10----10----10----3-----3-----3-----5-----4-----4-----4-----4-----|
G|-10----10----10----10----10----10----10----10----3-----3-----3-----3-----3-----3-----3-----3-----|
D|-9-----9-----9-----9-----9-----9-----9-----9-----3-----3-----3-----5-----5-----5-----5-----5-----|
A|-10----10----10----10----10----10----10----10----3-----3-----3-----4-----3-----3-----3-----3-----|
E|-------------------------------------------------------------------------------------------------|
   1  +  2  +  3  +  4  +  1  +  2  +  3  +  4  +  1  +  2  +  3  +  4  +  1  +  2  +  3  +  4  +


   17                      18                      19                      20
   D7                                              Gm7               Abm7  Gm7
e|-5-----5-----5-----5-----5-----5-----5-----5-----3-----3-----3-----4-----3-----3-----3-----3-----|
B|-7-----7-----7-----7-----7-----7-----7-----7-----3-----3-----3-----4-----3-----3-----3-----3-----|
G|-5-----5-----5-----5-----5-----5-----5-----5-----3-----3-----3-----4-----3-----3-----3-----3-----|
D|-7-----7-----7-----7-----7-----7-----7-----7-----3-----3-----3-----4-----3-----3-----3-----3-----|
A|-5-----5-----5-----5-----5-----5-----5-----5-----5-----5-----5-----6-----5-----5-----5-----5-----|
E|-------------------------------------------------3-----3-----3-----4-----3-----3-----3-----3-----|
   1  +  2  +  3  +  4  +  1  +  2  +  3  +  4  +  1  +  2  +  3  +  4  +  1  +  2  +  3  +  4  +


   21                      22                      23                      24
   C9                                              Cm7                     F7
e|-------------------------------------------------3-----3-----3-----3-----1-----1-----1-----1-----|
B|-3-----3-----3-----3-----3-----3-----3-----3-----4-----4-----4-----4-----1-----1-----1-----1-----|
G|-3-----3-----3-----3-----3-----3-----3-----3-----3-----3-----3-----3-----2-----2-----2-----2-----|
D|-2-----2-----2-----2-----2-----2-----2-----2-----5-----5-----5-----5-----1-----1-----1-----1-----|
A|-3-----3-----3-----3-----3-----3-----3-----3-----3-----3-----3-----3-----3-----3-----3-----3-----|
E|-------------------------------------------------------------------------1-----1-----1-----1-----|
   1  +  2  +  3  +  4  +  1  +  2  +  3  +  4  +  1  +  2  +  3  +  4  +  1  +  2  +  3  +  4  +


   25                      26                      27                      28
   Bb6               F+7   Bbmaj7                  D9                 
e|-3-----3-----3-----------1-----1-----1-----1-----------------------------------------------------|
B|-3-----3-----3-----2-----3-----3-----3-----3-----5-----5-----5-----5-----5-----5-----5-----5-----|
G|-3-----3-----3-----2-----2-----2-----2-----2-----5-----5-----5-----5-----5-----5-----5-----5-----|
D|-3-----3-----3-----1-----3-----3-----3-----3-----4-----4-----4-----4-----4-----4-----4-----4-----|
A|-1-----1-----1-----0-----1-----1-----1-----1-----5-----5-----5-----6-----5-----5-----5-----5-----|
E|-------------------1-----------------------------------------------------------------------------|
   1  +  2  +  3  +  4  +  1  +  2  +  3  +  4  +  1  +  2  +  3  +  4  +  1  +  2  +  3  +  4  +

   29                      30                      31                      32     
   G7          F/A         Bbdim7      G7/B        Cm7  
e|-3-----3-----5-----5-----0-----0-----1-----1-----3-----3-----3-----3-----3-----3-----3-----3-----|
B|-3-----3-----6-----6-----2-----2-----0-----0-----4-----4-----4-----4-----4-----4-----4-----4-----|
G|-4-----4-----5-----5-----0-----0-----0-----0-----3-----3-----3-----3-----3-----3-----3-----3-----|
D|-3-----3-----7-----7-----2-----2-----3-----3-----5-----5-----5-----5-----5-----5-----5-----5-----|
A|-5-----5-----8-----8-----1-----1-----2-----2-----3-----3-----3-----3-----3-----3-----3-----3-----|
E|-3-----3-----5-----5-----------------------------------------------------------------------------|
   1  +  2  +  3  +  4  +  1  +  2  +  3  +  4  +  1  +  2  +  3  +  4  +  1  +  2  +  3  +  4  +

   33                      34                      35                      36
   Eb6                     Edim7                   Bbmaj7      Dm7        G13   G+7   G7
e|--2----2-----2-----2-----3-----3-----3-----3-----1-----1-----5-----5-----0-----0-----1-----1-----|
B|--1----1-----1-----1-----2-----2-----2-----2-----3-----3-----6-----6-----0-----4-----0-----0-----|
G|--2----2-----2-----2-----0-----0-----0-----0-----2-----2-----5-----5-----0-----4-----0-----0-----|
D|--1----1-----1-----1-----2-----2-----2-----2-----3-----3-----7-----7-----3-----3-----0-----0-----|
A|-------------------------1-----1-----1-----1-----1-----1-----5-----5-----2-----2-----2-----2-----|
E|-------------------------0-----0-----0-----0-----------------------------3-----3-----3-----3-----|
   1  +  2  +  3  +  4  +  1  +  2  +  3  +  4  +  1  +  2  +  3  +  4  +  1  +  2  +  3  +  4  +

   37                      38                      39                      40
   Cm7                     Ebmaj7/F         F13    Bb6                    Cm7               F7
e|-3-----3-----3-----3-----3-----3-----3-----3-----3-----3-----3-----3-----3-----3-----3-----1-----|
B|-4-----4-----4-----4-----3-----3-----3-----3-----3-----3-----3-----3-----4-----4-----4-----1-----|
G|-3-----3-----3-----3-----3-----3-----3-----2-----3-----3-----3-----3-----3-----3-----3-----2-----|
D|-5-----5-----5-----5-----1-----1-----1-----1-----3-----3-----3-----3-----5-----5-----5-----1-----|
A|-3-----3-----3-----3-----1-----1-----1-----0-----1-----1-----1-----1-----3-----3-----3-----3-----|
E|-------------------------1-----1-----1-----1-----------------------------------------------1-----|
   1  +  2  +  3  +  4  +  1  +  2  +  3  +  4  +  1  +  2  +  3  +  4  +  1  +  2  +  3  +  4  +

   41                      42                      43                      44
   Bb6                    Bbmaj7                   D9                 
e|-3-----3-----3-----3-----1-----1-----1-----1-----------------------------------------------------|
B|-3-----3-----3-----3-----3-----3-----3-----3-----5-----5-----5-----5-----5-----5-----5-----5-----|
G|-3-----3-----3-----3-----2-----2-----2-----2-----5-----5-----5-----5-----5-----5-----5-----5-----|
D|-3-----3-----3-----3-----3-----3-----3-----3-----4-----4-----4-----4-----4-----4-----4-----4-----|
A|-1-----1-----1-----1-----1-----1-----1-----1-----5-----5-----5-----6-----5-----5-----5-----5-----|
E|-------------------------------------------------------------------------------------------------|
   1  +  2  +  3  +  4  +  1  +  2  +  3  +  4  +  1  +  2  +  3  +  4  +  1  +  2  +  3  +  4  +

   45                      46                      47                      48
   G7          F/A         Bbdim7      G7/B        Cm7  
e|-3-----3-----5-----5-----0-----0-----1-----1-----3-----3-----3-----3-----3-----3-----3-----3-----|
B|-3-----3-----6-----6-----2-----2-----0-----0-----4-----4-----4-----4-----4-----4-----4-----4-----|
G|-4-----4-----5-----5-----0-----0-----0-----0-----3-----3-----3-----3-----3-----3-----3-----3-----|
D|-3-----3-----7-----7-----2-----2-----3-----3-----5-----5-----5-----5-----5-----5-----5-----5-----|
A|-5-----5-----8-----8-----1-----1-----2-----2-----3-----3-----3-----3-----3-----3-----3-----3-----|
E|-3-----3-----5-----5-----------------------------------------------------------------------------|
   1  +  2  +  3  +  4  +  1  +  2  +  3  +  4  +  1  +  2  +  3  +  4  +  1  +  2  +  3  +  4  +

   49                      50                      51                      52
   D7                                              Gm                                  Gm7       
e|-5-----5-----5-----5-----5-----5-----5-----5-----3-----3-----3-----3-----3-----3-----3-----3-----|
B|-7-----7-----7-----7-----7-----7-----7-----7-----3-----3-----3-----3-----3-----3-----3-----3-----|
G|-5-----5-----5-----5-----5-----5-----5-----5-----3-----3-----3-----3-----3-----3-----3-----3-----|
D|-7-----7-----7-----7-----7-----7-----7-----7-----5-----5-----5-----5-----5-----5-----3-----3-----|
A|-5-----5-----5-----5-----5-----5-----5-----5-----5-----5-----5-----5-----3-----3-----3-----3-----|
E|-------------------------------------------------3-----3-----3-----3-----3-----3-----3-----3-----|
   1  +  2  +  3  +  4  +  1  +  2  +  3  +  4  +  1  +  2  +  3  +  4  +  1  +  2  +  3  +  4  +

   53                      54                      55                      56
   C9                                              Cm7                                 F7
e|-------------------------------------------------3-----3-----3-----3-----3-----3-----1-----1-----|
B|-3-----3-----3-----3-----3-----3-----3-----3-----4-----4-----4-----4-----4-----4-----1-----1-----|
G|-3-----3-----3-----3-----3-----3-----3-----3-----3-----3-----3-----3-----3-----3-----2-----2-----|
D|-2-----2-----2-----2-----2-----2-----2-----2-----5-----5-----5-----5-----5-----5-----1-----1-----|
A|-3-----3-----3-----3-----3-----3-----3-----3-----3-----3-----3-----3-----3-----3-----3-----3-----|
E|-------------------------------------------------------------------------------------1-----1-----|
   1  +  2  +  3  +  4  +  1  +  2  +  3  +  4  +  1  +  2  +  3  +  4  +  1  +  2  +  3  +  4  +

   57                      58                      59                      60
   Bb6               F+7   Bbmaj7                  D9                Eb7   D7 
e|-3-----3-----3-----------1-----1-----1-----1-----------------------6-----5-----5-----5-----5-----|
B|-3-----3-----3-----2-----3-----3-----3-----3-----5-----5-----5-----8-----7-----7-----7-----7-----|
G|-3-----3-----3-----2-----2-----2-----2-----2-----5-----5-----5-----6-----5-----5-----5-----5-----|
D|-3-----3-----3-----1-----3-----3-----3-----3-----4-----4-----4-----8-----7-----7-----7-----7-----|
A|-1-----1-----1-----0-----1-----1-----1-----1-----5-----5-----5-----6-----5-----5-----5-----5-----|
E|-------------------1-----------------------------------------------------------------------------|
   1  +  2  +  3  +  4  +  1  +  2  +  3  +  4  +  1  +  2  +  3  +  4  +  1  +  2  +  3  +  4  +

   61                      62                      63                      64
   G9                                              Gm7/C           C#dim7  Cm7
e|-------------------------------------------------3-----3-----3-----3-----3-----3-----3-----3-----|
B|-10----10----10----10----10----10----10----10----3-----3-----3-----5-----4-----4-----4-----4-----|
G|-10----10----10----10----10----10----10----10----3-----3-----3-----3-----3-----3-----3-----3-----|
D|-9-----9-----9-----9-----9-----9-----9-----9-----3-----3-----3-----5-----5-----5-----5-----5-----|
A|-10----10----10----10----10----10----10----10----3-----3-----3-----4-----3-----3-----3-----3-----|
E|-------------------------------------------------------------------------------------------------|
   1  +  2  +  3  +  4  +  1  +  2  +  3  +  4  +  1  +  2  +  3  +  4  +  1  +  2  +  3  +  4  +

   65                      66                      67                      68
   Eb6                     Edim7                   Bbmaj7      Dm7         G13   G+7   G7
e|-2-----2-----2-----2-----3-----3-----3-----3-----1-----1-----5-----5-----0-----0-----1-----1-----|
B|-1-----1-----1-----1-----2-----2-----2-----2-----3-----3-----6-----6-----0-----4-----0-----0-----|
G|-2-----2-----2-----2-----0-----0-----0-----0-----2-----2-----5-----5-----0-----4-----0-----0-----|
D|-1-----1-----1-----1-----2-----2-----2-----2-----3-----3-----7-----7-----3-----3-----0-----0-----|
A|-------------------------1-----1-----1-----1-----1-----1-----5-----5-----2-----2-----2-----2-----|
E|-------------------------0-----0-----0-----0-----------------------------3-----3-----3-----3-----|
   1  +  2  +  3  +  4  +  1  +  2  +  3  +  4  +  1  +  2  +  3  +  4  +  1  +  2  +  3  +  4  +

   69                      70                      71                      72
   Cm7                     Ebmaj7/F    F7         Dm7                      G9          G7
e|-3-----3-----3-----3-----3-----3-----1-----1-----5-----5-----5-----5-----------------1-----1-----|
B|-4-----4-----4-----4-----3-----3-----1-----1-----6-----6-----6-----6-----10----10----0-----0-----|
G|-3-----3-----3-----3-----3-----3-----2-----2-----5-----5-----5-----5-----10----10----0-----0-----|
D|-5-----5-----5-----5-----1-----1-----1-----1-----7-----7-----7-----7-----9-----9-----0-----0-----|
A|-3-----3-----3-----3-----1-----1-----3-----3-----5-----5-----5-----5-----10----10----2-----2-----|
E|-------------------------1-----1-----1-----1-----------------------------------------3-----3-----|
   1  +  2  +  3  +  4  +  1  +  2  +  3  +  4  +  1  +  2  +  3  +  4  +  1  +  2  +  3  +  4  +

   73                      74                      75                      76
   Cm7                     Ebmaj7/F    F7       Bb6                                          Bb7
e|-3-----3-----3-----3-----3-----3-----1--------3--------------------------------------------1-----|
B|-4-----4-----4-----4-----3-----3-----1--------3--------------------------------------------3-----|
G|-3-----3-----3-----3-----3-----3-----2--------3--------------------------------------------1-----|
D|-5-----5-----5-----5-----1-----1-----1--------3--------------------------------------------3-----|
A|-3-----3-----3-----3-----1-----1-----3--------1--------------------------------------------1-----|
E|-------------------------1-----1-----1-----------------------------------------------------------|
   1  +  2  +  3  +  4  +  1  +  2  +  3  +  4  +  1  +  2  +  3  +  4  +  1  +  2  +  3  +  4  +

            
            
Suggest correction
Creating personal tab
Creating personal tab
You can edit any tab online and save it as your Personal.

You can edit, replace or remove any tab part or add personal notes – all changes will be seen only by you.

Personal tabs can be accessed anytime from any device, even offline.
Learn more »
Give kudos to tab author, rate the tab!
1 2 3 4 5
comments
print report bad tab
guest
You may want to rate the tab now too:
select rating
Wanna post a correction for this tab? Suggest correction