Oops, an error
Loading. Please wait.

Witch Doctor Tab

1,312 views 15 this week
no commentswrite comment
1 2 3 4 5
excellent!
x 1
add to favorites
launch autoscroll
font size
0
reset
how to read this tab
guitar tuner
Tab Pro tools
  • play this tab
  • loop segment
  • change instrument
  • show fretboard
  • metronome
Autoscroll
slow
fast
+/-
esc
set tempo
stop
Contributor
witch doctor


the sha-na na


TRANSCRIBED BY RUDY GUZMAN


guzman_84@hotmail.com




           I told the witch doctor I was in love with you x2                                   
e:-------------------------------------------------------|
B:-------------------------------------------------------|
G:-------------------------------------------------------|
D:-------------------------------------------------------|
A:-----2-3-----------------------------------------------|
E:-3-5---------------------------------------------------|

           And then the witch doctor, he told me what to do
e:-------------------------------------------------------|
B:-------------------------------------------------------|
G:-------------------------------------------------------|
D:-------------------------------------------------------|
A:-----1-2-----------------------------------------------|
E:-3-5---------------------------------------------------|

           He said that
e:-------------------------------------------------------|
B:-------------------------------------------------------|
G:-------------------------------------------------------|
D:-------------------------------------------------------|
A:-----2-3-----------------------------------------------|
E:-3-5---------------------------------------------------|

  Ooo eee, ooo ah ah, ting tang, walla walla, bing bang
e:---------------------------------0---0-----|
B:---1---1---1---1------1---1------0---0-----|
G:---0---0---2---2------0---0------0---0-----|
D:---2---2-3-3-3-3------2---2------0---0-----|
A:-3-3-3-3------------3-3-3-3------0---0-----|
E:-------------------------------3---3-------|

  Ooo eee, ooo ah ah, ting tang, walla walla, bing bang
e:---------------------------------------------------|
B:---1---1---1---1-------0-----0-------------------1-|
G:---0---0---2---2-------0-----0-------------------0-|
D:---2---2-3-3-3-3-------0-----0-------------------2-|
A:-3-3-3-3------------------0----------------------3-|
E:--------------------3------------------------------|


  Ooo eee, ooo ah ah, ting tang, walla walla, bing bang
e:---------------------------------0---0-----|
B:---1---1---1---1------1---1------0---0-----|
G:---0---0---2---2------0---0------0---0-----|
D:---2---2-3-3-3-3------2---2------0---0-----|
A:-3-3-3-3------------3-3-3-3------0---0-----|
E:-------------------------------3---3-------|

  Ooo eee, ooo ah ah, ting tang, walla walla, bing bang
e:---------------------------------------------------|
B:---1---1---1---1-------0-----0-------------------1-|
G:---0---0---2---2-------0-----0-------------------0-|
D:---2---2-3-3-3-3-------0-----0-------------------2-|
A:-3-3-3-3------------------0----------------------3-|
E:--------------------3------------------------------|


  I told the witch doctor you didn't love me true
e:-------------------------------------------------|
B:----6-----6-----6-----6-----6-----6-----6-----6--|
G:----6-----6-----6-----6-----6-----6-----6-----6--|
D:----6-----6-----6-----6-----6-----6-----6-----6--|
A:-4--4--4--4--4--4--4--4--4--4--4--4--4--4--4--4--|
E:-------------------------------------------------|

I told the witch doctor you didn't love me nice
e:-------------------------------------------------|
B:----6-----6-----6-----6-----6-----6-----6-----6--|
G:----6-----6-----6-----6-----6-----6-----6-----6--|
D:----6-----6-----6-----6-----6-----6-----6-----6--|
A:-4--4--4--4--4--4--4--4--4--4--4--4--4--4--4--4--|
E:-------------------------------------------------|

   And then the witch doctor, he gave me this advice
e:---------------------------------------------------|
B:-------------------------------6--6--6--6--6--6--6-|
G:-5--5--5--5--5--5--5--5--5--5--6--6--6--6--6--6--6-|
D:-6--6--6--6--6--6--6--6--6--6--6--6--6--6--6--6--6-|
A:-6--6--6--6--6--6--6--6--6--6--4--4--4--4--4--4--4-|
E:-4--4--4--4--4--4--4--4--4--4----------------------|


  Ooo eee, ooo ah ah, ting tang, walla walla, bing bang
e:-------------------------------------------|
B:---6---6---7---7------6---6----------------|
G:---6---6---6---6------6---6------5---5-----|
D:---6---6-4-4-4-4------6---6------6---6-----|
A:-4-4-4-4------------4-4-4-4------6---6-----|
E:-------------------------------4---4-------|

  Ooo eee, ooo ah ah, ting tang, walla walla, bing bang
e:---------------------------------------------------|
B:---6---6---7---7---------------------------------6-|
G:---6---6---6---6----5--5-----5-------------------6-|
D:---6---6-4-4-4-4----6--6-----6-------------------6-|
A:-4-4-4-4------------6--6--6----------------------4-|
E:--------------------4------------------------------|


  Ooo eee, ooo ah ah, ting tang, walla walla, bing bang
e:-------------------------------------------|
B:---6---6---7---7------6---6----------------|
G:---6---6---6---6------6---6------5---5-----|
D:---6---6-4-4-4-4------6---6------6---6-----|
A:-4-4-4-4------------4-4-4-4------6---6-----|
E:-------------------------------4---4-------|

  Ooo eee, ooo ah ah, ting tang, walla walla, bing bang
e:---------------------------------------------------|
B:---6---6---7---7---------------------------------6-|
G:---6---6---6---6----5--5-----5-------------------6-|
D:---6---6-4-4-4-4----6--6-----6-------------------6-|
A:-4-4-4-4------------6--6--6----------------------4-|
E:--------------------4------------------------------|


  Now, you've been keeping love from me, just like you were a miser
e:--------------------------------------------------------------|
B:-1-1-1-1-1-1-1-1-1-1-1-1-1-1-1-1-1-1-1--1-1-1-1-1-1-1-1-1-1-1-|
G:-2-2-2-2-2-2-2-2-2-2-2-2-2-2-2-2-2-2-2--0-0-0-0-0-0-0-0-0-0-0-|
D:-3-3-3-3-3-3-3-3-3-3-3-3-3-3-3-3-3-3-3--2-2-2-2-2-2-2-2-2-2-2-|
A:----------------------------------------3-3-3-3-3-3-3-3-3-3-3-|
E:--------------------------------------------------------------|

  And I'll admit I wasn't very smart.
e:-3-3-3-3-3-3-3-3-3------------------|
B:-3-3-3-3-3-3-3-3-3--1-1-1-1---------|
G:-0-0-0-0-0-0-0-0-0--0-0-0-0---2-2-2-|
D:-0-0-0-0-0-0-0-0-0--2-2-2-2---3-3-3-|
A:--------------------3-3-3-3---3-3-3-|
E:----------------------------1-1-1-1-|

   So, I went out and found myself a guy that's so much wiser
e:--------------------------------------------------------------|
B:-1-1-1-1-1-1-1-1-1-1-1-1-1-1-1-1-1-1-1--1-1-1-1-1-1-1-1-1-1-1-|
G:-2-2-2-2-2-2-2-2-2-2-2-2-2-2-2-2-2-2-2--0-0-0-0-0-0-0-0-0-0-0-|
D:-3-3-3-3-3-3-3-3-3-3-3-3-3-3-3-3-3-3-3--2-2-2-2-2-2-2-2-2-2-2-|
A:----------------------------------------3-3-3-3-3-3-3-3-3-3-3-|
E:--------------------------------------------------------------|

  And he taught me the way to win your heart
e:-3-3-3-3-3-3-3-3-3------------------|
B:-3-3-3-3-3-3-3-3-3--1-1-1-1---------|
G:-0-0-0-0-0-0-0-0-0--0-0-0-0---------|
D:-0-0-0-0-0-0-0-0-0--2-2-2-2---------|
A:--------------------3-3-3-3---------|
E:------------------------------------|

e:---------|
B:---------|
G:---------|
D:---------|
A:-----2-3-|
E:-3-5-----|

  My friend the witch doctor, he taught me what to say
e:----2-----2-----2-----2-----2-----2-----2-----2--|
B:----3-----3-----3-----3-----3-----3-----3-----3--|
G:----2-----2-----2-----2-----2-----2-----2-----2--|
D:-0--0--0--0--0--0--0--0--0--0--0--0--0--0--0--0--|
A:-------------------------------------------------|
E:-------------------------------------------------|

   My friend the witch doctor, he taught me what to do
e:----2-----2-----2-----2-----2-----2-----2-----2--|
B:----3-----3-----3-----3-----3-----3-----3-----3--|
G:----2-----2-----2-----2-----2-----2-----2-----2--|
D:-0--0--0--0--0--0--0--0--0--0--0--0--0--0--0--0--|
A:-------------------------------------------------|
E:-------------------------------------------------|

   I know that you'll be mine when I say this to you
e:----------------------------------2-----2-----2----|
B:-2--2--2--2--2--2--2--2--2--2-----3-----3-----3----|
G:-2--2--2--2--2--2--2--2--2--2-----2-----2-----2----|
D:-2--2--2--2--2--2--2--2--2--2--0--0--0--0--0--0--0-|
A:-0--0--0--0--0--0--0--0--0--0----------------------|
E:---------------------------------------------------|


  Ooo eee, ooo ah ah, ting tang, walla walla, bing bang
e:---2---2---3---3------2---2---------------|
B:---3---3---3---3------3---3-------2---2---|
G:---2---2---0---0------2---2-------2---2---|
D:-0-0-0-0-0-0-0-0----0-0-0-0-------2---2---|
A:--------------------------------0-0-0-0---|
E:------------------------------------------|

  Ooo eee, ooo ah ah, ting tang, walla walla, bing bang
e:---2---2---3---3---------------------------------2-|
B:---3---3---3---3----2--2--2--2---2--2------------3-|
G:---2---2---0---0----2--2--2--2---2--2------------2-|
D:-0-0-0-0-0-0-0-0----2--2--2--2---2--2------------0-|
A:--------------------0--0--0--0---0--0--------------|
E:---------------------------------------------------|

  Ooo eee, ooo ah ah, ting tang, walla walla, bing bang
e:---2---2---3---3------2---2---------------|
B:---3---3---3---3------3---3-------2---2---|
G:---2---2---0---0------2---2-------2---2---|
D:-0-0-0-0-0-0-0-0----0-0-0-0-------2---2---|
A:--------------------------------0-0-0-0---|
E:------------------------------------------|

  Ooo eee, ooo ah ah, ting tang, walla walla, bing bang
e:---2---2---3---3---------------------------------2-|
B:---3---3---3---3----2--2--2--2---2--2------------3-|
G:---2---2---0---0----2--2--2--2---2--2------------2-|
D:-0-0-0-0-0-0-0-0----2--2--2--2---2--2------------0-|
A:--------------------0--0--0--0---0--0--------------|
E:---------------------------------------------------|

 Now, you've been keeping love from me, just like you
e:-3--3--3--3--3--3--3--3--3--3---------2-2-2-2-2-2-2-2-2-|
B:-3--3--3--3--3--3--3--3--3--3---------3-3-3-3-3-3-3-3-3-|
G:-0--0--0--0--0--0--0--0--0--0---------2-2-2-2-2-2-2-2-2-|
D:-0--0--0--0--0--0--0--0--0--0---------0-0-0-0-0-0-0-0-0-|
A:-2--2--2--2--2--2--2--2--2--2---------------------------|
E:-3--3--3--3--3--3--3--3--3--3---------------------------|

  And I'll admit I wasn't very smart
e:----------------------------2-2-2-2-2-2-2-3-3-3-3-|
B:-2--2--2--2--2--2--2--2--2--3-3-3-3-3-3-3-3-3-3-3-|
G:-2--2--2--2--2--2--2--2--2--2-2-2-2-2-2-2-0-0-0-0-|
D:-2--2--2--2--2--2--2--2--2--0-0-0-0-0-0-0-0-0-0-0-|
A:-0--0--0--0--0--0--0--0--0------------------------|
E:--------------------------------------------------|


So, I went out and found myself a guy that's so much wiser
e:-3--3--3--3--3--3--3--3--3--3---------2-2-2-2-2-2-2-2-2-|
B:-3--3--3--3--3--3--3--3--3--3---------3-3-3-3-3-3-3-3-3-|
G:-0--0--0--0--0--0--0--0--0--0---------2-2-2-2-2-2-2-2-2-|
D:-0--0--0--0--0--0--0--0--0--0---------0-0-0-0-0-0-0-0-0-|
A:-2--2--2--2--2--2--2--2--2--2---------------------------|
E:-3--3--3--3--3--3--3--3--3--3---------------------------|

And he taught me the way to win your heart
e:------------------------------------------|
B:----------------------------2-2-2-2-2-2-2-|
G:-1--1--1--1--1--1--1--1--1--2-2-2-2-2-2-2-|
D:-2--2--2--2--2--2--2--2--2--2-2-2-2-2-2-2-|
A:-2--2--2--2--2--2--2--2--2--0-0-0-0-0-0-0-|
E:-0--0--0--0--0--0--0--0--0----------------|

  My friend the witch doctor, he taught me what to say
e:----2-----2-----2-----2-----2-----2-----2-----2--|
B:----3-----3-----3-----3-----3-----3-----3-----3--|
G:----2-----2-----2-----2-----2-----2-----2-----2--|
D:-0--0--0--0--0--0--0--0--0--0--0--0--0--0--0--0--|
A:-------------------------------------------------|
E:-------------------------------------------------|

   My friend the witch doctor, he taught me what to do
e:----2-----2-----2-----2-----2-----2-----2-----2--|
B:----3-----3-----3-----3-----3-----3-----3-----3--|
G:----2-----2-----2-----2-----2-----2-----2-----2--|
D:-0--0--0--0--0--0--0--0--0--0--0--0--0--0--0--0--|
A:-------------------------------------------------|
E:-------------------------------------------------|

   I know that you'll be mine when I say this to you
e:----------------------------------2-----2-----2----|
B:-2--2--2--2--2--2--2--2--2--2-----3-----3-----3----|
G:-2--2--2--2--2--2--2--2--2--2-----2-----2-----2----|
D:-2--2--2--2--2--2--2--2--2--2--0--0--0--0--0--0--0-|
A:-0--0--0--0--0--0--0--0--0--0----------------------|
E:---------------------------------------------------|


  Ooo eee, ooo ah ah, ting tang, walla walla, bing bang
e:---2---2---3---3------2---2---------------|
B:---3---3---3---3------3---3-------2---2---|
G:---2---2---0---0------2---2-------2---2---|
D:-0-0-0-0-0-0-0-0----0-0-0-0-------2---2---|
A:--------------------------------0-0-0-0---|
E:------------------------------------------|

  Ooo eee, ooo ah ah, ting tang, walla walla, bing bang
e:---2---2---3---3---------------------------------2-|
B:---3---3---3---3----2--2--2--2---2--2------------3-|
G:---2---2---0---0----2--2--2--2---2--2------------2-|
D:-0-0-0-0-0-0-0-0----2--2--2--2---2--2------------0-|
A:--------------------0--0--0--0---0--0--------------|
E:---------------------------------------------------|

  Ooo eee, ooo ah ah, ting tang, walla walla, bing bang
e:---2---2---3---3------2---2---------------|
B:---3---3---3---3------3---3-------2---2---|
G:---2---2---0---0------2---2-------2---2---|
D:-0-0-0-0-0-0-0-0----0-0-0-0-------2---2---|
A:--------------------------------0-0-0-0---|
E:------------------------------------------|

  Ooo eee, ooo ah ah, ting tang, walla walla, bing bang
e:---2---2---3---3---------------------------------2-|
B:---3---3---3---3----2--2--2--2---2--2------------3-|
G:---2---2---0---0----2--2--2--2---2--2------------2-|
D:-0-0-0-0-0-0-0-0----2--2--2--2---2--2------------0-|
A:--------------------0--0--0--0---0--0--------------|
E:---------------------------------------------------|


  Ooo eee, ooo ah ah, ting tang, walla walla, bing bang
e:---2---2---3---3------2---2---------------|
B:---3---3---3---3------3---3-------2---2---|
G:---2---2---0---0------2---2-------2---2---|
D:-0-0-0-0-0-0-0-0----0-0-0-0-------2---2---|
A:--------------------------------0-0-0-0---|
E:------------------------------------------|

  Ooo eee, ooo ah ah, ting tang, walla walla, bing bang
e:---2---2---3---3---------------------------------2-|
B:---3---3---3---3----2--2--2--2---2--2------------3-|
G:---2---2---0---0----2--2--2--2---2--2------------2-|
D:-0-0-0-0-0-0-0-0----2--2--2--2---2--2------------0-|
A:--------------------0--0--0--0---0--0--------------|
E:---------------------------------------------------|




hillo son mex

20/01/13
comments
We did not receive enough feedback on this tab! Please rate:
print report bad tab
1 2 3 4 5
I want to post or [tab]
guest
You may want to rate the tab now too:
select rating
Please do not post tabs as comments. Select "correction" instead!