Oops, an error
Loading. Please wait.

Star Cecil Tab

version 1
version 1

Whole song

972 views 6 this week
no commentswrite comment
1 2 3 4 5
please rate
add to favorites
launch autoscroll
font size
0
reset
how to read this tab
guitar tuner
Autoscroll
slow
fast
+/-
esc
set tempo
stop
Help us to improve Ultimate-Guitar.com Take our survey!
×
Author
Difficulty
intermediate
-------------------------------------------------------------------------------
Star Cecil by Shabutie
-------------------------------------------------------------------------------
Tabbed by: ColonelGathers

Tuning: Standard (When he does it live now he tunes down a half step, but the original
is in standard)

This is the best I could do, was based on an excellent tutorial video by
FonderFromAbsence on Youtube. It’s not precise, I usually change up the strumming on the 
opening every
time because it lends itself to some improv, but it’s pretty close.


Verse
e|--3--------3-3/5--------5-5/7-------7-7---7--8---------8---8\-----|
B|----3-------------5-----------7---------7-------8--------8—8\-----|
G|------0-------------0-----------0------------------0--------------|
D|------------------------------------------------------------------|
A|------------------------------------------------------------------|
E|--3-----3----3/5------5---5/7-----7---7------8-------8------------|

e|-------------------0-----(0)------0-----------------------------------|
B|--7---------2--------2----1---1-----1---------------------------5+----|
G|----7---------0--------0--0-----0-----0-------------------------5+----|
D|------7--------1----------2--------------------0h2p0--2-0-------5+----|
A|--5-----5---3---3---------3--------------0h2h3-------------3-0--------|
E|----------------------------------------------------------------------|

(Optional fill I made up to bridge that gap)
e|-------------------------------|
B|-------------------------------|
G|-----------------0-------------|
D|------------0-2----2-----------|
A|--0h2p0h2h3----------3---------|
E|-------------------------------|

Repeat


Chorus (strumming is up to you, Claudio picks it)

e|-------------------------2-------------------------------------------------|
B|--3----------------3-----3---------3---------------------------------------|
G|--0----------------0-----2----0----0---------------------------------------|
D|--2----0-----2-----2-----0----2----2---------------------------------------|
A|--3----2-----2-----3----------2----3---------------------------------------|
E|-------2-----3-------------------------------------------------------------|

Bridge

e|---------------------------------------------------------------------------|
B|---------------------------------------------------------------------------|
G|---------------------------------------------------------------------------|
D|--3-2-0--------------------------------------------------------------------|
A|--3-2-0--3-2-0-------------------------------------------------------------|
E|---------3-2-0-------------------------------------------------------------|


Whatever this is, again strumming is up to you, just listen to the song

e|-------------------------------------------------------------------------|
B|-------------------------------------------------------------------------|
G|-13--11--14--16--19------------------------------------------------------|
D|--x--x----x---x---x------------------------------------------------------|
A|-11--9---12--14--17------------------------------------------------------|
E|-------------------------------------------------------------------------|

Another Bridge

e|-------0---0---0---3---0-------------|
B|-------0---0---0---3---2-------------|
G|-------1---4---5---0---2-------------|
D|---3---2---2---5---0---2-------------|
A|---1---2---2---3---2---0-------------|
E|---1---------------3---0-------------|

Back to verse to chorus, that’s all

************************************

| /   slide up
| \   slide down
| h   hammer-on
| p   pull-off
| ~   vibrato
| +   harmonic
| x   Mute note
| b   Bend
| pb  Pre-bend
| br  Bend release
| pbr Pre-bend release
| brb Bend release bend

************************************
Suggest correction
What's this?
You can suggest a correction to this tab. Community and Mods will review your correction and vote to approve or reject it.
comments
We did not receive enough feedback on this tab! Please rate:
print report bad tab
1 2 3 4 5
guest
You may want to rate the tab now too:
select rating
Please do not post tabs as comments. Select "correction" instead!