Oops, an error
Loading. Please wait.

Sputnik Tab

version 1
version 1

Whole song

1,393 views 6 this week
no commentswrite comment
1 2 3 4 5
please rate
add to favorites
launch autoscroll
font size
0
reset
how to read this tab
guitar tuner
Tab Pro tools
  • play this tab
  • loop segment
  • change instrument
  • show fretboard
  • metronome
×
Best way to learn
"Sputnik"
Autoscroll
slow
fast
+/-
esc
set tempo
stop
Shades apart

sputnik
tune half step down
-|----------------------------------------|-
-|----------------------------------------|-
-|-----8---9---8--9-------8--9------8--9--|-
-|---9---9---9----------9---------9-------|-
-|-7-----------------11---------9---------|-
-|----------------------------------------|-
  Chorus
-|----------------------------------------------------------------|-
-|----------------------------------------------------------------|-
-|-9-9------------------------------9-9---------------------------|-
-|-9-9----------------6-6----4-4----9-9------------------1-2--1-2-|-
-|-7-7----------------6-6----4-4----7-7-----------------2----2----|-
-|-0-0-7*7*-9*9*-7*7*-4-4----2-2----0-0-7*7*-9*9*-7*7*-4----2-----|-
  Verse
-|---------------------------------|-
-|---------------------------------|-
-|-6-6-6-6-6-6-6-6---------4-4-4-4-|-
-|-6-6-6-6-6-6-6-6-6-6-6-6-4-4-4-4-|-
-|-4-4-4-4-4-4-4-4-6-6-6-6-2-2-2-2-|-
-|-----------------4-4-4-4---------|-
  Pre-chorus
-|---------------------------------------------|-
-|---------------------------------------------|-
-|-9/11-11/13-13/14-14--14\13-13\11-11-13-11-9-|-
-|-x/x--x-/x--x-/x--x---x-\-x--x\x--x--x--x--x-|-
-|-7/9--9-/11-11/12-12--12\11-11\9--9--11-9--7-|-
-|---------------------------------------------|-
  bridge play 3 times
-|-----------------------------------------------|-
-|-----------------------------------------------|-
-|-9/11-11/13-13/14-14--14\13-13\11--11/14-14-13-|-
-|-x-x--x--x--x--x--x---x--x--x--x---x--x--x--x--|-
-|-7/9--9-/11-11/12-12--12\11-11\9---9/-12-12-11-|-
-|-----------------------------------------------|-
comments
We did not receive enough feedback on this tab! Please rate:
print report bad tab
1 2 3 4 5
I want to post or [tab]
guest
You may want to rate the tab now too:
select rating
Please do not post tabs as comments. Select "correction" instead!