Oops, an error
Loading. Please wait.

A Fire In Babylon Bass Tab

version 2
version 2

Whole song

Interactive

634 views 1 this week
2 commentsread comments
1 2 3 4 5
accurate
x 3
add to favorites
launch autoscroll
font size
0
reset
guitar tuner
Autoscroll
slow
fast
+/-
esc
set tempo
stop
Help us to improve Ultimate-Guitar.com Take our survey!
×
Contributor
Difficulty
intermediate
.  - palm mute           /  - slide up to
\  - slide down to       ~  - vibrato
h  - hammer on           b  - Bend
p  - pull off            Suffixes for bend
t  - tap                 f  - full bend    h - half bend
ph - pinched harmonic    q  - quarter bend t - tap bend
*  - see comment         ^  - Hold bend    r release bend
x  - Stuccatto           ~  - vibrato bend
,  - slight palm mute    () - ghost note, sustained note
"  - tremolo note        <> - Trill

Tuning DGCF

Intro                 x2                                             x2
||--------------------||---------------------------------------------||
||*------------------*||--------------------------------------------*||
||*-0---(0)----------*||-00---0-7-5-8-7-3-5-3--------5-3------------*||
||------------1---3---||------------------------11-------3---(3)-----||
                                               (one)

||-----------------------||
||-----------------------||
||-----------------------||
||-1-3-7-8-5-3-5---(5)---||

Fill 1
||-----------------------||
||-----------------------||
||-----------------------||
||-000---000---000---000-||

Main Riff                               x4
||--------------------------------------||
||----7-7---5-55------3-3----5-55-------||
||-------8------7--------5-------7---7--||
||-000-----0------000------0-------0----||

Fill 2            x4
||----------------||
||*--------------*||
||*-----------5--*||
||--5-7-8-10-5----||

Pre-chorus                             x2
||-------------------------------------||
||*-----------------------------------*||
||*-8--7--10-8--78-78-8--5--7-8--5--7-*||
||---00-00--0-00--0--0-00-00-0-00-00---||

Fill 3
||--------||
||--------||
||--------||
||-55-3-5-||


Chorus 1       x3                                x3
||-------------||-----------------||-------------||-------------------------||
||*-----------*||-----------------||*-----------*||-------------------------||
||*---------0-*||-----------------||*---------0-*||-------------------------||
||---1---3-----||-1-1111/3-0-0000-||--1---3------||-1-1111/3-0-000-1-1111/3-||

Repeat song from the Main Riff.

Chorus 2                                             x3
||----------------------||---------------------------||-----||
||--777-777-777---------||*---------777-777---------*||-----||
||----------------575---||*----333------------575---*||-----||
||-5---5---5---5-8---85-||--553----5---5---5-8---85--||-5-5-||

Bridge                                x2
||------------------------------------||
||*-00---------------00--------------*||
||*------1---3--4-4-------1------3-3-*||
||----------------------------1-------||

||-----------------------------------------||
||-00-00000-------------------------------*||
||----------11-111111-33-333333-44-444444-*||
||-----------------------------------------||

||-----------------------------------------||
||-00-00000-------------------------------*||
||----------11-111111-----------33-333333-*||
||--------------------11-111111------------||

Play these notes a bunch in time with the music.

(The song changes rthyhm, but the notes stay the same.
  Give yourself a pat on the back if you can figure it out!)

Repeat the song from Fill 3 then skip to Outro.

Outro                                                  x2
||-----------------------------------------------------||
||-----------------------------------------------------||
||-00000000000--------------000000000000-333333-555555-||
||-------------333333333333----------------------------||


ENDa
Suggest correction What's this?
You can suggest a correction to this tab. Community and Mods will review your correction and vote to approve or reject it.
comments
We did not receive enough feedback on this tab! Please rate:
print report bad tab
1 2 3 4 5
2 comments total.
0 reply
xX_KsE_Xx 31 wrote on May 27 2006, 12:35 pm

you dumb ass, you have to get ride of the big legend!!!!! thats how ppl know that its ripped from metal tabs!

0 reply
killswitch_mike 1,111 wrote on May 29 2006, 04:19 pm

Copied, little ****er, Do your own work...

I want to post or [tab]
guest
You may want to rate the tab now too:
select rating
Please do not post tabs as comments. Select "correction" instead!