Oops, an error
Loading. Please wait.

Act Of Contrition Guitar Pro

version 1
version 1

Whole song

Interactive

864 views 1 this week
3 commentsread comments
1 2 3 4 5
accurate
x 3
add to favorites
guitar tuner
Autoscroll
slow
fast
+/-
esc
set tempo
stop
Contributor
Filesize
Instruments
95 Kb
rhythm guitar #1, rhythm guitar #2, lead guitar #1, lead guitar #2, bass, percussion
"Act Of Contrition"
demo version
Play now

or get full version for Free

Get full version now!
To learn and play this song
in Tab Pro, start free trial
Start free trial

or get $10 off Welcome Bonus

Get welcome bonus
Get access to Tab Pro version of “Act Of Contrition”!
Tab Pro is a premium guitar tab service, available on PC, Mac, iOS and Android
START FREE TRIAL
Your download will start in 7 seconds
×
Like this song? We have more like this. Follow us on Facebook for more great tabs and guitar-related content
To download “Act Of Contrition” Guitar Pro tab click button below
Please note that you must have Guitar Pro software installed on your
computer in order to view this file.
comments
We did not receive enough feedback on this tab! Please rate:
report bad tab
1 2 3 4 5
3 comments total.
0 reply
j.rockstar wrote on March 11 2014, 08:11 pm

Title: Act of Contrition
Artist: Shadows Fall
Album: The War Within
Words: Brian Fair
Music: Shadows Fall
Copyright: 2004
Tabber: j.rockstar
Tempo = 180
Electric Guitar

Legend
L - tied note
x - dead note
h - hammer on/pull off
b - bend
s - slide
~ - vibrato
g - ghost note
> - accentuated note
t - trill
M - palm mute
. - staccato
P - popping (bass)
S - slapping (bass)
+ - tapping
W - wide vibrato
< - fade in
w - whammy bar
= - tremolo picking
v - brush up
^ - brush down
V - pick stroke up
n - pick stroke down


D |----------------------------|----------------------------|
A |--7-------------------------|-----8--------8--7----------|
F |--9--------9--------9-------|-----7--------7-------------|
C |--9--------9--------9-------|-----7--------7-------------|
G |--7--------7----------------|----------------------------|
D |-----0M-0M----0M-0M----0M---|--0M----0M-0M-------0M-0M---|


----------------------------|----------------------------|
--8--------8--8-----7L------|--7-----7.----7h-8----------|
--5--------5--5-----7L------|--7-----7-----7-------------|
--5--------5--5.----7L------|--7-----7-----7-------------|
----------------------------|----------------------------|
----------------------------|--------------------0M-0M---|


----------------------------|----------------------------|
--7-------------------------|-----8--------8h-7----------|
--9--------9--------9-------|-----7--------7-------------|
--9--------9--------9-------|-----7--------7-------------|
--7--------7----------------|----------------------------|
-----0M-0M----0M-0M----0M---|--0M----0M-0M-------0M-0M---|


----------------------------|----------------------------|
--8--------8--8-----7L------|--7-----7.----7h-8----------|
--5--------5--5-----7L------|--7-----7-----7-------------|
--5--------5--5.----7L------|--7-----7-----7-------------|
----------------------------|----------------------------|
----------------------------|--------------------0M-0M---|


----------------------------------------------------|
----------------------------------------------------|
----------------------------------------------------|
--5-----------------4-----------------4s----5-------|
--7-----------------5-----------------5s----7-------|
--------0--0--0-----------0--0--0-------------------|


----------------------------------------------------|
----------------------------------------------------|
--4-----------------------------------4-------------|
--5-----------------------5-----------5-------------|
--------------------------7-------------------------|
--------0--0--0-----0-----------0-----------0-------|


----------------------------------------------------|
----------------------------------------------------|
----------------------------------------------------|
--5-----------------4-----------------5s----7-------|
--7-----------------5-----------------7s----9-------|
--------0--0--0-----------0--0--0-------------------|


----------------------------------------------------|
----------------------------------------------------|
----------------------------------------------------|
--------------5-----------4-----------2-------------|
--------------7-----------5-----------3-------------|
--0--0--0-----------0-----------0-----------0-------|


----------------------------------------------------|
----------------------------------------------------|
----------------------------------------------------|
--5-----------------4-----------------4s----5-------|
--7-----------------5-----------------5s----7-------|
--------0--0--0-----------0--0--0-------------------|


----------------------------------------------------|
----------------------------------------------------|
--4-----------------------------------4-------------|
--5-----------------------5-----------5-------------|
--------------------------7-------------------------|
--------0--0--0-----0-----------0-----------0-------|


----------------------------------------------------|
----------------------------------------------------|
----------------------------------------------------|
--5-----------------4-----------------4s----5-------|
--7-----------------5-----------------7s----9-------|
--------0--0--0-----------0--0--0-------------------|


----------------------------------------------------|
------------------------------------

0 reply
j.rockstar wrote on March 11 2014, 08:17 pm

2. It only allowed 15 Measures for Correction? huh? Here is the rest, whatever it takes to post the entire thing I guess is what I am supposed to do. I dont know really... ~j.rockstar~
=====================================================================


RHYTHM:

----------------------------------------------------|
----------------------------------------------------|
--9--9--7--7--9--9--11-11-9--9--7--7--5--5--7--7----|
----------------------------------------------------|
----------------------------------------------------|
----------------------------------------------------|


----------------------------------------------------|
----------------------------------------------------|
--11-11-9--9--11-11-12-12-11-11-9--9--11~-----------|
----------------------------------------------------|
----------------------------------------------------|
----------------------------------------------------|


----------------------------|-------||---------------------------|
----------------------------|-------||---------------------------|
----------------------------|-------||o--------------------------|
--2--------0--------0h-2----|-------||o2--------0--------0--2----|
--2--------0--------0h-2----|-------||-2--------0--------0--2----|
-----0M-0M----0M-0M---------|-------||----0M-0M----0M-0M---------|


----------------------------------------------------|
----------------------------------------------------|
----------------------------------------------------|
----------------------------------------------------|
----------------------------------------------------|
--0M----0M----0M----0M----0M-0M-0M----0M----0M------|


----------------------------|
----------------------------|
----------------------------|
--2--------0-----2----------|
--2--------0-----2----------|
-----0M-0M----0-----0M-0M---|


----------------------------------------------------|
----------------------------------------------------|
----------------------------------------------------|
--5-----------------7L----7-------------------------|
--3-----------------5L----5-------------------------|
--------------0-----------------0-----0M-0M-0M------|


----------------------------|
----------------------------|
----------------------------|
--2--------0--------0--2----|
--2--------0--------0--2----|
-----0M-0M----0M-0M---------|


----------------------------------------------------|
----------------------------------------------------|
----------------------------------------------------|
----------------------------------------------------|
----------------------------------------------------|
--0M----0M----0M----0M----0M-0M-0M----0M----0M------|


----------------------------|
----------------------------|
----------------------------|
--2--------0-----2----------|
--2--------0-----2----------|
-----0M-0M----0-----0M-0M---|


----------------------------------------------------|
----------------------------------------------------|
----------------------------------------------------|
--5-------------------------------------------------|
--3-----------------5L----5-------------------------|
--------------0-----3L----3-----3M----3M-3M-3M------|


----------------------------|----------------------------|
----------------------------|----------------------------|
----------------------------|-----------------9--7-------|
--------------------9-------|--10-9--7--9--7--------9----|
-----------7----------------|----------------------------|
--0--0--0-----0--0-----0----|----------------------------|


----------------------------|----------------------------|
----------------------------|----------------------------|
----------------------------|----------------------------|
--------------------9-------|--10-9--7--9--7-------------|
-----------7----------------|-----------------9--10-9----|
--0--0--0-----0--0-----0----|----------------------------|


----------------------------|----------------------------|
----------------------------|----------------------------|
----------------------------|-----------------9--7-------|
--------------------9-------|--10-9--7--9--7--------9----|
-----------7----------------|----------------------------|
--0--0--0-----0--0-----0----|----------------------------|


----------------------------|
----------------------------|
----------------------------|
--------------------9-------|
-----------7--

0 reply
j.rockstar wrote on March 11 2014, 08:20 pm

You Know What, Instead of trying to post corrections here, simply go to the other UG Site, and download my version of the song. This guy did great. However, not completely accurate...The one I posted is much more accurate as I am sure when you scope it out, will totally enjoy, and be glad to see many corrections. Either way, good job to the guy who posted this one, and obviously spent alot of time to do so.

I want to post or [tab]
guest
You may want to rate the tab now too:
select rating
Please do not post tabs as comments. Select "correction" instead!