Oops, an error
Loading. Please wait.

Carpal Tunnel Tab

753 views 1 this week
no commentswrite comment
1 2 3 4 5
please rate
add to favorites
launch autoscroll
font size
0
reset
how to read this tab
guitar tuner
Autoscroll
slow
fast
+/-
esc
set tempo
stop
Help us to improve Ultimate-Guitar.com Take our survey!
×
Author
Difficulty
Tuning
intermediate
D A D G B E
-------------------------------------------------------------------------------
                         Carpal Tunnel- Shadows fall
-------------------------------------------------------------------------------
Tabbed by: BFMV_rocks
Email: jkrocks010@hotmail.co.uk

Tuning: Drop D (DADGBE)

Intro
E|---------------------------------------------------------------------------|
B|---------------------------------------------------------------------------|
G|---------------------------------------------------------------------------|
D|-----------------------------------------5---------------------------------|
A|----6-5----5-3-------------3-2-----8/-3--3---------------------------------|
E|-000-0--000-0--000-000-000--0--000-8/-3------------------------------------|

E|---------------------------------------------------------------------------|
B|---------------------------------------------------------------------------|
G|---------------------------------------------------------------------------|
D|---------------------------------------------------------------------------|
A|----6-5----5-3-------------3-2-------1----3--------------------------------|
D|-000-0--000-0--000-000-000--0--000------3----------------------------------|X2
                                      TR TR TR
E|---------------------------------------------------------------------------|
B|---------------------------------------------------------------------------|
G|---------------------------------------------------------------------------|
D|-----------------------------------------5---------------------------------|
A|----6-5----5-3-------------3-2-----8--3--3---------------------------------|
D|-000-0--000-0--000-000-000--0--000-8--3------------------------------------|

Verse
E|---------------------------------------------------------------------------|
B|---------------------------------------------------------------------------|
G|------------5-----7-------------------------5-----7------------------------|
D|-0----------5-------7~--0-------------------5-------7~---------------------|
A|-0----------3-----------0-------------------3------------------------------|
D|-0-00000000-----6-------0-0000000000000000------6--------------------------|

Pre-Chorus
E|---------------------------------------------------------------------------|
B|---------------------------------------------------------------------------|
G|---------------------------------------------------------------------------|
D|---5-----3-----6-----3---2-------------------------------------------------|
A|---5-----3-----6-----3---2-------------------------------------------------|
D|---5—----3-----6-----3---2-------------------------------------------------|

Chorus
E|---------------------------------------------------------------------------|
B|---------------------------------------------------------------------------|
G|---------------------------------------------------------------------------|
D|-0-------3---------10--------8-----------10--8---7h8p7---------------------|
A|-0-------3---------10--------8-------8----------------8--------------------|
D|-0-------3---------10--------8-----8----8---8---8--------------------------|


Interlude Part 1
Gtr 1
E|---------------------------------------------------------------------------|
B|---------------------------------------------------------------------------|
G|---------------------------------------------------------------------------|
D|-----------------------------7-----5-----8---------------------------------|
A|----5h6p5---3h5p3----3-2-----5-----3-----6---------------------------------|
D|-00------00-------00-3-2-00------------------------------------------------|

Gtr 2
E|---------------------------------------------------------------------------|
B|---------------------------------------------------------------------------|
G|---------------------------------------------------------------------------|
D|-----------------------------7-----5-----8---------------------------------|
A|-00------00-------00-3-2-----5-----3-----6---------------------------------|
D|-00------00-------00-3-2-00------------------------------------------------|

Part 2 Both Gtrs
E|---------------------------------------------------------------------------|
B|---------------------------------------------------------------------------|
G|---------------------------------------------------------------------------|
D|---------------------------7-----5-----8-----------------------------------|
A|---5h6p5—-3h5p3----3-2-----5-----3-----6-----------------------------------|
D|-00-----00------00-3-2-00--------------------------------------------------|

Guitar Break
E|---------------------------------------------------------------------------|
B|---------------------------------------------------------------------------|
G|---------------------------------------------------------------------------|
D|---------------------------------------3h5p3---3h5p3-3---------------------|
A|---5h6p5---5h6p5h6h8p6p5h6---8h10p8-----------------6-6p5h6----------------|
D|-00-----00-----------------00-------00-------00----------------------------|

E|---------------------------------------------------------------------------|
B|---------------------------------------------------------------------------|
G|---------------------------------------------------------------------------|
D|---5h6p5--5h6p5h6h8p6p5h6---3h5p3—3h5p3-3----------------------------------|
A|---------------------------------------6-6p5p3-----------------------------|
D|-00-----00----------------00-----00----------------------------------------|

I haven’t worked out the solo yet but here is the rhythm guitar’s part and I’m 
about 90 percent sure about this
E|---------------------------------------------------------------------------|
B|---------------------------------------------------------------------------|
G|---------------------------------------------------------------------------|
D|0---------------3---------------5---------------8--------------------------|
A|0---------------3---------------5---------------8-------------8--7\--------|
D|000000000000000-333333333333333-555555555555555-8888888888888-8--7\--------|x2

Order of song
Intro
Verse x2
Pre-chorus
Chorus x2
Verse x2
Pre-chorus
Chorus x2
Interlude part 1
Interlude part 2 x4
Guitar break
Guitar solo (rhythm played twice)
Verse x2
Pre-chorus
Chorus x2
Interlude part 1
Interlude part 2 x4


| /  Slide up
| \  Slide down
| h  Hammer-on
| p  Pull-off
| ~  Vibrato
| TR Tremolo picking
===============================================================================

Suggest correction
What's this?
You can suggest a correction to this tab. Community and Mods will review your correction and vote to approve or reject it.
comments
We did not receive enough feedback on this tab! Please rate:
print report bad tab
1 2 3 4 5
guest
You may want to rate the tab now too:
select rating
Please do not post tabs as comments. Select "correction" instead!