Oops, an error
Loading. Please wait.

Casting Shade Tab

version 2
version 2

Whole song

Interactive

2,950 views 3 this week
no commentswrite comment
1 2 3 4 5
excellent!
x 3
add to favorites
launch autoscroll
font size
0
reset
how to read this tab
guitar tuner
Autoscroll
slow
fast
+/-
esc
set tempo
stop
Help us to improve Ultimate-Guitar.com Take our survey!
×
Difficulty
intermediate
----------------------------------------------------------------------------
                             CASTING SHADE - Shadows Fall
----------------------------------------------------------------------------
Tabbed by:Jim the black man

     I'm pretty sure this is almost perfect except for a few notes in verse B
and in the chorus, but it's close enough.  I didn't put strumming patterns in
cause they're easier to figure out on your own than to read in a tab. I didn't
write it in the exact rhythm either so just listen to the song and you'll get it.
Enjoy.

Tuning:D Standard 

Verse A
Guitar 1:
d||-----------------|---------------------------------|
A||-----------------|---------------------------------|
F||------0---------o|--------------------------------o|
C||----2-------2---o|----0-4-----0-------0-4---2---0-o|
G||--2-------2---2--|--0-------0---0---0--------------|
D||0------0---------|2-------2-------2-------2---2----|
Guitar 2:                                             |
d||0----------------|2--------------------------------|
A||0----------------|3--------------------------------|
F||0----------------|2-------------------------------o|
C||2----------------|0-------------------------------o|
G||2----------------|0--------------------------------|
D||0----------------|---------------------------------|

Verse B
Guitar 1:
d|---------------------3------------------------------|
A|---5-3-5-------5-3-5-3-5-3-0----3----3----5-3-1-----|
F|---5-4-5-------5-4-5---5-4-4----4----4----5-4-2----o|
C|---------------------------0----0------------------o|
G|----------------------------------------------------|
D|----------------------------------------------------|
Guitar 2:                                             |
d|---0>----------0>----------2>-----------------------|
A|---1>----------1>----------3>-----------------------|
F|---2>----------0>----------2>----------------------o|
C|---2>----------2>----------0>----------------------o|
G|0--0>----0-2-3-3>----------0>-----------------------|
D|----------------------------------------------------|

Chorus
Guitar 1:
d|14----12---10-10/12---10-------------------------------------------------|
A|---------------------------12-12\10----10--------------------------------|
F|11-----9----7--7/9-----7------------------------------------------------o|
C|----------------------------9--9\7------7-------------------------------o|
G|-------------------------------------------------------------------------|
D|-------------------------------------------------------------------------|
Guitar2:                                                                   |
d|0>-------------0>----------------2-----2-------2-3-----2-------2---------|
A|0>-------------1>------------------3-----3---3-----3-----3---3-----------|
F|0>-------------0>--------------------2-----2---------2-----2------------o|
C|2>-------------2>-------------------------------------------------------o|
G|2>-------------3>--------------------------------------------------------|
D|0>-----------------------------------------------------------------------|

Order:

Verse A
Verse B
Chorus
Verse A
Verse B
Chorus
Verse A


| /  slide up
| \  slide down
|----o|
|----o| = repeat
|>   Strum chord
============================================================================
Suggest correction
What's this?
You can suggest a correction to this tab. Community and Mods will review your correction and vote to approve or reject it.
comments
We did not receive enough feedback on this tab! Please rate:
print report bad tab
1 2 3 4 5
guest
You may want to rate the tab now too:
select rating
Please do not post tabs as comments. Select "correction" instead!