Oops, an error
Loading. Please wait.

December Bass Tab

494 views 1 this week
no commentswrite comment
1 2 3 4 5
please rate
add to favorites
launch autoscroll
font size
0
reset
guitar tuner
Autoscroll
slow
fast
+/-
esc
set tempo
stop
Help us to improve Ultimate-Guitar.com Take our survey!
×
Shadows Fall
December
CGCF

Intro:
|--------------------------|    |--------------|
|--------------------------|    |--------------|
|--------------------------|    |--------------|
|-2-00002-00002-0000242400-|X16 |-0—-2-3—-2-32-|

Verse 1:
|--------------------------|
|--------------------------|
|--------------------------|
|-3-0003~/6-0-3h4p3-5~-000-|X8

Chorus:
            |1,3       |2           |4            |
|-----------|----------|------------|-------------|
|*----------|----------|------------|------------*|
|*----------|----------|------------|------3-2-0-*|
|-8~-7~-000-|-9-7-4-6~-|-9-000-7-4~-|-2-000-------|

Verse 1:X6
Verse 2:
|-------------------|
|--------------43---|
|-----------34---42-|
|-3-0003/6-4--------|

Verse 1: X1
Verse 2: X1
Chorus: 

Interlude:

      |1,2,3  |4          |  
|-----|-------|-----------|   |-5h776-5h7-6---------|
|*--2-|-------|----------*|   |------6---7-6-6------|
|*----|-0-320-|-000-3-2-0*|   |-------------0-7p550-|
|-0---|-------|-----------|X2 |---------------------|

|-----------------------|   
|*---------------------*|   
|*-3----2-0------------*|   
|---000-----3-20-10-000-|X2 

                |1,2,3                   |4            |
|---------------|------------------------|-------------|
|---------------|------------------------|-------3-2-0-|
|-3~-0~---3-2-0-|-3----------------------|-3-2-0-------|
|---------------|----1-0000-1-0000-1-000-|-------------|

Verse 1: X8
Chorus:

Outro:
      |1,2,3  |4          |  
|-----|-------|-----------|   
|*--2-|-------|----------*|   
|*----|-0-320-|-000-3-2-0*|   
|-0---|-------|-----------|

      |1,2,3  | 
|-----|-------|--------------|
|*--2-|------*|--------------|
|*----|-0-320*|--------3-2-0-|  
|-0---|-------|-000000-------|
 
Slow Down a little:
|-----|-------|   
|*--2-|------*|   
|*----|-0-320*|   
|-0---|-------|X32
Suggest correction
Give kudos to tab author, rate the tab!
1 2 3 4 5
comments
print report bad tab
guest
You may want to rate the tab now too:
select rating
Please do not post tabs as comments. Select "correction" instead!