Oops, an error
Loading. Please wait.

Destroyer Of Senses Tab

version 2
version 2

Whole song

Interactive

1,368 views 3 this week
6 commentsread comments
1 2 3 4 5
x 3
add to favorites
launch autoscroll
font size
0
reset
how to read this tab
guitar tuner
Autoscroll
slow
fast
+/-
esc
set tempo
stop
Help us to improve Ultimate-Guitar.com Take our survey!
×
Author
Band - Shadows Fall
Song - Destroyer Of Senses

Intro:
	      (Guitar 1)
|-----------------|-----------------|
|-----------------|-----------------|
|-----------------|-----------------|
|-------------3---|---7s5-----------|
|-0-1-0-5-3-0-1-3-|-0-5S3-0-3-5-0-6-|
|-0-1-0-5-3-0---3-|-0-----0-3-5-0-6-|

|-----------------|-----------------|
|-----------------|-----------------|
|-----------------|-----------------|
|-------------3---|---7s5-----------|
|-0-1-0-5-3-0-1-3-|-0-5S3-0-3-5-3h5-|
|-0-1-0-5-3-0---3-|-0-----0-3-5-----|


 Verse:
		     (Guitars 1, 2)
|-----------------|-----------------|-----------------|
|-----------------|-----------------|-----------------|
|-----------------|-----------------|-----------------|
|-------------3---|---7s5-----------|-------------3---|
|-0-1-0-5-3-0-1-3-|-0-5S3-0-3-5-0-6-|-0-1-0-5-3-0-1-3-|
|-0-1-0-5-3-0---3-|-0-----0-3-5-0-6-|-0-1-0-5-3-0---3-|

|-----------------|-----------------|-----------------|
|-----------------|-----------------|-----------------|
|-----------------|-----------------|-----------------|
|---7s5-----------|-------------3---|---7s5-----------|
|-0-5S3-0-3-5-3h5-|-0-1-0-5-3-0-1-3-|-0-5S3-0-3-5-0-6-|
|-0-----0-3-5-----|-0-1-0-5-3-0---3-|-0-----0-3-5-0-6-|

|-----------------|-----------------|
|-----------------|-----------------|
|-----------------|-----------------|
|-------------3---|---7s5-----------|
|-0-1-0-5-3-0-1-3-|-0-5S3-0-3-5-3h5-|
|-0-1-0-5-3-0---3-|-0-----0-3-5-----|


 Chorus:
  (Guitars 1, 2)
                      PM..|     PM..|   ~                    PM..|
|---------------|---------------------|----------------|------------------|
|---------------|---------------------|----------------|------------------|
|---------------|---------------------|----------------|------------------|
|---------------|---------------------|----------------|------------------|
|-0---6-(6)--5--|-(5)-0-0-0-3-5-0-0-0-|-5--0-6-(6)--5--|-(5)-0-0-0-1-3-6--|
|-0---6-(6)--5--|-(5)-0-0-0-3-5-0-0-0-|----0-6-(6)--5--|-(5)-0-0-0-1-3-6--|

                      PM..|     PM..|    ~~~              PM..|   PM..|
|---------------|---------------------|---------------|-----------------|
|---------------|---------------------|---------------|-----------------|
|---------------|---------------------|---------------|-----------------|
|---------------|---------------------|---------------|-----------------|
|-0---6-(6)--5--|-(5)-0-0-0-3-5-0-0-0-|-[5]---6-6--5--|-0-0-0-0-0-0-0-0-|
|-0---6-(6)--5--|-(5)-0-0-0-3-5-0-0-0-|-------6-6--5--|-0-0-0-0-0-0-0-0-|

  (Guitars 1, 2)
    PM..|   PM............................|
|-----------------|-------------------------|
|-----------------|-------------------------|
|-----------------|-------------------------|
|-----------------|-------------------------|
|-0-0-0-0-0-0-0-0-|-0-0-0-0-0-0-0-0-0-0-0-0-|
|-0-0-0-0-0-0-0-0-|-0-0-0-0-0-0-0-0-0-0-0-0-|

  (Guitars 3, 4)
                                ~~~
|--------------------12----8--------|
|----------11--------13--------11---|
|------9---12----9--------12---10---|
|-7---10--------10------------------|
|-8---------------------------------|
|-----------------------------------|
|
|-----------------------------------|
|-----------------------------------|
|-----------------------------------|
|-----------------------------------|
|-0-0--0-0--0-0--0-0--0-0--0-0-15\--|
|-0-0--0-0--0-0--0-0--0-0--0-0-15\--|

   Chorus:
                       PM..|     PM..|
|----------------|---------------------|
|o---------------|---------------------|
|----------------|---------------------|
|----------------|---------------------|
|o-0---6-(6)--5--|-(5)-0-0-0-3-5-0-0-0-|
|--0---6-(6)--5--|-(5)-0-0-0-3-5-0-0-0-|

  ~                    PM..|
|----------------|------------------|---------------|
|----------------|------------------|---------------|
|----------------|------------------|---------------|
|----------------|------------------|---------------|
|-5--0-6-(6)--5--|-(5)-0-0-0-1-3-6--|-0---6-(6)--5--|
|----0-6-(6)--5--|-(5)-0-0-0-1-3-6--|-0---6-(6)--5--|

      PM..|     PM..|    ~~~                PM..|
|---------------------|---------------|-------------------|
|---------------------|---------------|------------------o|
|---------------------|---------------|-------------------|
|---------------------|---------------|-------------------|
|-(5)-0-0-0-3-5-0-0-0-|-[5]---6-6--5--|-(5)-0-0-0-1-3S6--o|
|-(5)-0-0-0-3-5-0-0-0-|-------6-6--5--|-(5)-0-0-0-1-3S6---|


 Interlude:
|----------||----------|------------|----------|-------|
|----------||----------|------------|-0--------|-------|
|----------||----------|------------|-0--------|-------|
|----------||----------|------------|-0--------|-------|
|-0--------||-0--------|-(0)--------|-0--------|-x\----|
|-0--------||-0--------|-(0)--------|----------|-------|

  PM................................................|
|-----------------|-----------------|-----------------|
|-----------------|-----------------|-----------------|
|-----------------|-----------------|-----------------|
|-----------------|-----------------|-----------------|
|-5-3-0-5-3-0-5-3-|-0-5-3-0-6-6-6-6-|-5-3-0-5-3-0-5-3-|
|-5-3-0-5-3-0-5-3-|-0-5-3-0-6-6-6-6-|-5-3-0-5-3-0-5-3-|

  PM....|   PM|   PM|
|---------------------||------------------|---------------|
|---------------------||o-----------------|---------------|
|---------------------||------------------|---------------|
|---------------------||------------------|---------------|
|-0-5-3-0-6-----1-----||o-5-3-0-5-3-0-5-3-|-0-5-3-0-6--6--|
|-0-5-3-0-6-0-0-1-0-0-||--5-3-0-5-3-0-5-3-|-0-5-3-0-6--6--|

                                      PM............|
|-----------------|----------------||-----------------|
|-----------------|---------------o||-----------------|
|-----------------|----------------||-----------------|
|-----------------|----------------||-----------------|
|-5-3-0-5-3-0-5-3-|-0-5-3-0-6S=1--o||-5-3-0-5-3-0-5-3-|
|-5-3-0-5-3-0-5-3-|-0-5-3-0-6S=1---||-5-3-0-5-3-0-5-3-|

  PM........................................|
|-----------------|-----------------|---------------|
|-----------------|-----------------|---------------|
|-----------------|-----------------|---------------|
|-----------------|-----------------|---------------|
|-0-5-3-0-6-6-6-6-|-5-3-0-5-3-0-5-3-|-0-5-3-0-6S=1--|
|-0-5-3-0-6-6-6-6-|-5-3-0-5-3-0-5-3-|-0-5-3-0-6S=1--|

|-----------------|---------------|-----------------|------------------|
|-----------------|---------------|-----------------|------------------|
|-----------------|---------------|-----------------|------------------|
|-----------------|---------------|-----------------|------------------|
|-5-3-0-5-3-0-5-3-|-0-5-3-0-6--6--|-5-3-0-5-3-0-5-3-|-0-5-3-0-6\--1\---|
|-5-3-0-5-3-0-5-3-|-0-5-3-0-6--6--|-5-3-0-5-3-0-5-3-|-0-5-3-0-6\--1\---|

    PM..|   PM............................|
|-----------------|-------------------------|
|-----------------|-------------------------|
|-----------------|-------------------------|
|-----------------|-------------------------|
|-0-0-0-0-0-0-0-0-|-0-0-0-0-0-0-0-0-0-0-0-0-|
|-0-0-0-0-0-0-0-0-|-0-0-0-0-0-0-0-0-0-0-0-0-|

 Guitar Solo:
		    (Guitar 3)
|-----------------------|----------------------------|
|-----------------------|----------------------------|
|-8b10---8b10r(8)--[7]--|-(7)\-5-7-5---5-[7]---------|
|-----------------------|------------7-------------x-|
|-----------------------|--------------------------x-|
|-----------------------|----------------------------|
|
|		  (Guitars 1, 2)
|                              PM......|       PM..|
|-----------------------|----------------------------|
|-----------------------|----------------------------|
|-----------------------|----------------------------|
|-----------------------|----------------------------|
|-0------6----(6)---5---|-(5)--0-----0-0--3--5-0-0-0-|
|-0------6----(6)---5---|-(5)--0-----0-0--3--5-0-0-0-|

                                                ~~~
|------------------------------|--------------------------|
|------------------------------|--------------------------|
|-10b12----15pb17-(15)p=3pb5-3-|-(3)-3p2---[2]-[3]--------|
|------------------------------|---------3----------------|
|------------------------------|--------------------------|
|------------------------------|--------------------------|
|
|  ~~~~~                             PM....|
|------------------------------|--------------------------|
|------------------------------|--------------------------|
|------------------------------|--------------------------|
|------------------------------|--------------------------|
|--5-----0--6------(6)--5------|-(5)-0---0--0---1--3-6----|
|--------0--6------(6)--5------|-(5)-0---0--0---1--3-6----|

|-10-8------10-8------12--8------10-10----|
|------10-8------10-8-------10-8-------11-|
|-----------------------------------------|
|-----------------------------------------|
|-----------------------------------------|
|-----------------------------------------|
|
|-----------------------------------------|
|-----------------------------------------|
|-----------------------------------------|
|-----------------------------------------|
|--0--------------6---(6)---------5-------|
|--0--------------6---(6)---------5-------|

|-10h=14p10----10h14p10----10h13p10h13-10h13p==10h13-|
|-----------11----------11---------------------------|
|----------------------------------------------------|
|----------------------------------------------------|
|----------------------------------------------------|
|----------------------------------------------------|
|
|         PM.........|                  PM........|
|----------------------------------------------------|
|----------------------------------------------------|
|----------------------------------------------------|
|----------------------------------------------------|
|-(5)-----0-----0-----0-----3--------5--0----0-----0-|
|-(5)-----0-----0-----0-----3--------5--0----0-----0-|

   ~~~~~
|-15b17--(15)-12h13h15p13p=12h13p12--------------------|
|-----------------------------------15p13p11-13p11\p10-|
|------------------------------------------------------|
|------------------------------------------------------|
|------------------------------------------------------|
|------------------------------------------------------|
|
|  ~~~~~
|------------------------------------------------------|
|------------------------------------------------------|
|------------------------------------------------------|
|------------------------------------------------------|
|--5-------0------6----(6)-----------5-----------------|
|----------0------6----(6)-----------5-----------------|

|-------------------------------------|
|-13p=11p10-11p10---------------------|
|-----------------12p10p9-10p9-7------|
|-------------------------------------|
|-------------------------------------|
|-------------------------------------|
|
|            PM-----------|
|-------------------------------------|
|-------------------------------------|
|-------------------------------------|
|-------------------------------------|
|-(5)--------0-----0-------0---1-3-6--|
|-(5)--------0-----0-------0---1-3-6--|

  Verse:
             (Guitars 1, 2)
|------------------|-----------------|
|o-----------------|-----------------|
|------------------|-----------------|
|--------------3---|---7s5-----------|
|o-0-1-0-5-3-0-1-3-|-0-5S3-0-3-5-0-6-|
|--0-1-0-5-3-0---3-|-0-----0-3-5-0-6-|

|-----------------|------------------|
|-----------------|-----------------o|
|-----------------|------------------|
|-------------3---|---7s5------------|
|-0-1-0-5-3-0-1-3-|-0-5S3-0-3-5-3h5-o|
|-0-1-0-5-3-0---3-|-0-----0-3-5------|


 Outro:
|-----------------|-----------------|
|-----------------|-----------------|
|-7-6-5-----------|-7-6-5-----------|
|-7-6-5-7-6-5-----|-7-6-5-7-6-5-----|
|-------7-6-5-3-5-|-------7-6-5-3-5-|
|-------------3-5-|-------------3-5-|

                      PM..|
|---------------|-----------------*|
|---------------|-----------------*|
|---------------|-----------------*|
|---------------|-----------------*|
|-0---6-(6)--5--|-(5)-0-0-0-3-5---*|
|-0---6-(6)--5--|-(5)-0-0-0-3-5---*|

End.
Suggest correction
Give kudos to tab author, rate the tab!
1 2 3 4 5
comments
print report bad tab
6 comments total. Showing first comments.
0 reply
Sumfartyuno 10 Mar 24, 2005 12:00 AM

hm... everything is correct... except, in the solo theres a small tap somewhere-i've seen them do it in this live clip. but i have no idea where so i'll just leave it at that.

0 reply
eplp22 10 Aug 24, 2005 12:00 AM

they definetly do the tap, its in the video and i say him do it on ozzfest in columbus. I cant believe ozzy doesnt show in Columbus, one of the 3 he missed. I guess thats just my luck

0 reply
eplp22 10 Aug 24, 2005 12:00 AM

seen*

guest
You may want to rate the tab now too:
select rating
Wanna post a correction for this tab? Suggest correction