Oops, an error
Loading. Please wait.

Dread Uprising Tab

version 1
version 1

Whole song

Interactive

1,058 views 1 this week
2 commentsread comments
1 2 3 4 5
excellent!
x 5
add to favorites
launch autoscroll
font size
0
reset
how to read this tab
guitar tuner
Autoscroll
slow
fast
+/-
esc
set tempo
stop
Help us to improve Ultimate-Guitar.com Take our survey!
×
Author
Shadows Fall - Dread Uprising

Tuning (DADGBE)

Note: Listen to the song for the correct timing im sure it's a little off on the tab.

| /  slide up
| \  slide down
| h  hammer-on
| p  pull-off
| ~  vibrato
| +  harmonic
| x  Mute note


Intro

Guitar 1
e|------------------------------------------------------------|
B|------------------------------------------------------------|
G|------------------------------------------------------------|
D|------------------------------------------------------------|
A|--------------------------3-1-------------------------------|
D|-0-0-0-0-3-3-3-3-6-6-6-6--3-1----0-0-0--0-0--0-0-0--0-0-0---|
                            p.m
Guitar 2                   
e|------------------------------------------------------------| 
B|------------------------------------------------------------|
G|------------------------------------------------------------|
D|------------------------------------------------------------|
A|--------------------------3-1-------------------------------|
D|-0-0-0-0-6-6-6-6-9-9-9-9--3-1----0-0-0--0-0--0-0-0--0-0-0---|
                            p.m
Verse

Both Guitars                            
e|---------------------------------|
B|---------------------------------|
G|---------------------------------|
D|---------------------------------|Repeat 4 times
A|-3-------5-------------3---------|
D|---0-3-5---0-3-5-0-3-5---5-3-0-1-|

e|---------------|
B|---------------|
G|---------------|
D|---------------|
A|-6---1---8---1-|
D|-6---1---8---1-|

e|---------------------------------------------------------------|
B|---------------------------------------------------------------|
G|-5\4-------------------------4\3-------------------------------|
D|---------------------------------------------------------------|
A|-3\2-------------------0-----2\1-----------------0-1-----5-3-0-|
D|-----0-0-0-0-0-0-0-0-0-0---------0-0-0-0-0-0-0-0-0-1-0-0-5-3-0-|
Repeat 2 times


e|-------------------------------------------------------------|
B|-------------------------------------------------------------|
G|-------------------------------------------------------------|
D|-------------------------------------------------------------|
A|-6-5-6-----------8-------3-----6-5-6-----------8-------3-2-0-|
D|-6-5-6-0-0-0-0-0-8-0-0-0-3-0-0-6-5-6-0-0-0-0-0-8-0-0-0-3-2-0-|
Repeat 2 times

                            
e|---------------------------------|
B|---------------------------------|
G|---------------------------------|
D|---------------------------------|Repeat 4 times
A|-3-------5-------------3---------|
D|---0-3-5---0-3-5-0-3-5---5-3-0-1-|

e|----------------------------------------------------------------|
B|----------------------------------------------------------------|
G|-5\4-------------------------4\3--------------------------------|
D|----------------------------------------------------------------|
A|-3\2-------------------0-----2\1-----------------0-1-----5-3-0--|
D|-----0-0-0-0-0-0-0-0-0-0---------0-0-0-0-0-0-0-0-0-1-0-0-5-3-0--|
Repeat 2 times


e|---------------------------------------------------------------|
B|---------------------------------------------------------------|
G|---------------------------------------------------------------|
D|---------------------------------------------------------------|
A|-6-5-6-----------8-------3-----6-5-6-----------8-------3-2-0---|
D|-6-5-6-0-0-0-0-0-8-0-0-0-3-0-0-6-5-6-0-0-0-0-0-8-0-0-0-3-2-0---|
Repeat 2 times


e|---------------|
B|---------------|
G|---------------|
D|---------------|
A|-6---1---8---1-|
D|-6---1---8---1-|

Chours


e|-------------------------------|
B|-------------------------------|
G|-------------------------------|
D|-------------------------------|Repeat 3 times
A|-6--\--0-0-0-0-0-8-0-0-0-3-0-0-|
D|-6--\--0-0-0-0-0-8-0-0-0-3-0-0-|

e|-------------------------------|
B|-------------------------------|
G|-------------------------------|
D|---------------8-7-5---5-------|
A|-6--\--0-0-0-0-------8---8-7-5-|
D|-6--\--0-0-0-0-----------------|

e|-------------------------------|
B|-------------------------------|
G|-------------------------------|
D|-------------------------------|Repeat 3 times
A|-6--\--0-0-0-0-0-8-0-0-0-3-0-0-|
D|-6--\--0-0-0-0-0-8-0-0-0-3-0-0-|

e|-------------------------------|
B|-------------------------------|
G|-------------------------------|
D|---------------8-7-5---5-------|
A|-6--\--0-0-0-0-------8---8-7-5-|
D|-6--\--0-0-0-0-----------------|

e|---------|
B|---------|
G|---------|
D|---------|
A|-0-0-----|
D|-0-0-----|



Solo Intro

Guitar 1
e|------------13-------------------------------------|
B|-----15--17----15------------15--16--15------15----|
G|13h14--------------14----13--------------13--------|
D|---------------------------------------------------|
A|---------------------------------------------------|
D|---------------------------------------------------|\
Guitar2                                                Repeat 4 times
e|---------------------------------------------------|/
B|---------------------------------------------------|
G|---------------------------------------------------|
D|---------------------------------------------------|
A|0------------------------6-----------3-------8-----|
D|0------------------------6-----------3-------8-----|

Note: tp=trem pick

Solo Intro Part 2

e|-------------------------------------------------------------------------|
B|18-15tp-17-15tp-18-15tp-20-15tp-18-15tp-17-15tp-18-15tp-17-15tp-18-------|
G|-------------------------------------------------------------------------|
D|-------------------------------------------------------------------------|
A|-------------------------------------------------------------------------|
D|-------------------------------------------------------------------------|

e|--------------18171517~-|
B|171514-171514-----------|
G|------------------------|
D|------------------------|
A|------------------------|
D|------------------------|

e|-------------------------------------------------------------------------|
B|18-15tp-17-15tp-18-15tp-20-15tp-18-15tp-17-15tp-18-15tp-17-15tp-18-------|
G|-------------------------------------------------------------------------|
D|-------------------------------------------------------------------------|
A|-------------------------------------------------------------------------|
D|-------------------------------------------------------------------------|


e|181715-----------|
B|-------181715----|
G|--------------18-|
D|-----------------|
A|-----------------|
E|-----------------|
Repeat 2 times


Solo



e|---------------------------------------------------------------|
B|10~------------------------------------5---5h6p5---5-----------|
G|---------7---9---9/12-10---6+~----5/7---7-------7---7-5----9---|
D|-----7-7---7---7----------7------------------------------8-8---|
A|---------------------------------------------------------------|
D|---------------------------------------------------------------|

e|------------------------------------------------|
B|----5---5---5---5---6----6----6----6----8-------|
G|----8b9-8b9-8b9-8b9-9b10-9b10-9b10-9b10-11b13---|
D|------------------------------------------------|
A|------------------------------------------------|
D|------------------------------------------------|


e|-------------------------------------|
B|8-----8-----8-------13b~----13b~-----|
G|11b13-11b13-11b13--------------------|
D|-------------------------------------|
A|-------------------------------------|
D|-------------------------------------|

e|13p10p8-13p10p8-13p10p8-13p10p8-13p10p8-15p13p10--------------15~--17h18p|
B|-------------------------------------------------13p12p10----------------|
G|----------------------------------------------------------15~------------|
D|-------------------------------------------------------------------------|
A|-------------------------------------------------------------------------|
D|-------------------------------------------------------------------------|


e|17-15-------17------------------------------------------------|
B|------18-15---------------------------------------------------|
G|------------------14h15p14-12-14-12---------------------------|
D|------------------------------------15-14-12-14h15p14-12-14-12|
A|--------------------------------------------------------------|
D|--------------------------------------------------------------|

e|-----181517181715-----------------------------------|
B|-----------------181715------------------151718-/-20|
G|-----------------------------141517141517-----------|
D|-----------------------141517-----------------------|
A|----------------------------------------------------|
D|----------------------------------------------------|





Bridge


Both Guitars                                      
e|----------------------------------------------------------------|
B|----------------------------------------------------------------|
G|----------------------------------------------------------------|
D|----------------------------------------------------------------|
A|----------------------------------------3-3-3-3-----------------|
D|0-0-0-0-3-3-3-3-6-6-6-6-0-0-0-0-3-3-3-3---------1-1-1-1-1-1-1-1-|

e|----------------------------------------------------------------|
B|---------------------------------------------------------------.|
G|----------------------------------------------------------------|
D|----------------------------------------------------------------|
A|----------------------------------------3-3-3-3----------------.|
D|0-0-0-0-3-3-3-3-6-6-6-6-0-0-0-0-3-3-3-3---------1-1-1-1-3-3-3-3-|

Repeat Bridge section 4 times

Verse

Both Guitars

e|---------------------------------|
B|---------------------------------|
G|---------------------------------|
D|---------------------------------|Repeat 4 times
A|-3-------5-------------3---------|
D|---0-3-5---0-3-5-0-3-5---5-3-0-1-|

e|----------------------------------------------------------------|
B|----------------------------------------------------------------|
G|-5\4-------------------------4\3--------------------------------|
D|----------------------------------------------------------------|
A|-3\2-------------------0-----2\1-----------------0-1-----5-3-0--|
D|-----0-0-0-0-0-0-0-0-0-0---------0-0-0-0-0-0-0-0-0-1-0-0-5-3-0--|
Repeat 4 times


e|-------------------------------------------------------------|
B|-------------------------------------------------------------|
G|-------------------------------------------------------------|
D|-------------------------------------------------------------|
A|-6-5-6-----------8-------3-----6-5-6-----------8-------3-2-0-|
D|-6-5-6-0-0-0-0-0-8-0-0-0-3-0-0-6-5-6-0-0-0-0-0-8-0-0-0-3-2-0-|
Repeat 2 times


Chours


e|-------------------------------|
B|-------------------------------|
G|-------------------------------|
D|-------------------------------|Repeat 4 times
A|-6--\--0-0-0-0-0-8-0-0-0-3-0-0-|
D|-6--\--0-0-0-0-0-8-0-0-0-3-0-0-|

e|-------------------------------|
B|-------------------------------|
G|-------------------------------|
D|---------------8-7-5---5-------|
A|-6--\--0-0-0-0-------8---8-7-5-|
D|-6--\--0-0-0-0-----------------|

e|-------------------------------|
B|-------------------------------|
G|-------------------------------|
D|-------------------------------|Repeat 3 times
A|-6--\--0-0-0-0-0-8-0-0-0-3-0-0-|
D|-6--\--0-0-0-0-0-8-0-0-0-3-0-0-|

e|-----------------------------------------------------|
B|-----------------------------------------------------|
G|-----------------------------------------------------|
D|---------------8-7-5---5----------10-9-7----7--------|
A|-6--\--0-0-0-0-------8---8-7-5-----------10---10-9-7-|
D|-6--\--0-0-0-0---------------------------------------|


Guitar 1
e|----------------------------------|
B|----------------------------------|
G|----------------------------------|
D|----------------------------------|
A|--------------------------3-1----0|
D|-0-0-0-0-3-3-3-3-6-6-6-6--3-1----0|
                            p.m
Guitar 2                   
e|----------------------------------| 
B|----------------------------------|
G|----------------------------------|
D|----------------------------------|
A|--------------------------3-1----0|
D|-0-0-0-0-6-6-6-6-9-9-9-9--3-1----0|
                            p.m

ENJOY!!!!!!!



| /  slide up
| \  slide down
| h  hammer-on
| p  pull-off
| ~  vibrato
| +  harmonic
| x  Mute note
Suggest correction
What's this?
You can suggest a correction to this tab. Community and Mods will review your correction and vote to approve or reject it.
comments
print report bad tab
2 comments total.
0 reply
CrosseGod18 579 wrote on July 11 2007, 10:44 pm

nice dude!!! very helpful for all purposes. Accurate as hell, I personally play in D tuning (DGCFAD) and Drop D is fine to, same thing really, but this tab is a great reference. I only tried the opening lick of the solo so far to see if it sounded right. Sounds perfect to me. 5 stars for right now but if I find so mistake I may lower it to a 4, later.

0 reply
AsILayDying123 12 wrote on August 14 2008, 08:20 am

nice tab dude but wen u sed tp it looked like tap pull-off

guest
You may want to rate the tab now too:
select rating
Please do not post tabs as comments. Select "correction" instead!