Oops, an error
Loading. Please wait.

Embrace Annihilation Tab

version 1
version 1

Whole song

Interactive

1,295 views 3 this week
no commentswrite comment
1 2 3 4 5
please rate
add to favorites
launch autoscroll
font size
0
reset
how to read this tab
guitar tuner
Autoscroll
slow
fast
+/-
esc
set tempo
stop
Help us to improve Ultimate-Guitar.com Take our survey!
×
Author
Difficulty
Tuning
intermediate
C G C F A D
shadows fall - embrace annihilation - album retribution - by mtdrew this is
my first tab. i didnt put how many xs to do each part cuz its preety ez to figure it out 
its pretty acurate a few parts are off. but no one has posted a tab of this song yet. 
i thought id post it
enjoy!          9/28/09

intro
]----------------------|------------------------|---------------------[
]----------------------|------------------------|---------------------[
]----------------------|------------------------|---------------------[
]----------------------|------------------------|---------------------[
]--3----5-----10--7-9/-|-3----5----8-7----------|-3----5-----10--7-9/-[
]--3-00-5--00---00-0---|-3-00-5-00----8-10-8-7/-|-3-00-5--00---00-0---[
     ..    ..   .. .       ..   ..                  ..    ..   .. .

]----------------------[
]----------------------[
]----------------------[
]-5-5------------------[
]-3-3-0-0-0--3----6-5-3[
]-----0-0-0--3----6-5-3[
      . . .       . . .
verse
]--------------------|--------------------|-------------------------------[
]--------------------|--------------------|-------------------------------[
]--------------------|--------------------|-------------------------------[
]--------------------|--------------------|--------------------5----------[
]---------------3\-5-|------------------3-|------------3\-5----3----3--5--[
]-0-000-0---00--3\-5-|00-000-0---0-0-0----|-0-000-00---3\-5-0----00-3--5--[
  . ... .   ..        .. ... .   . . .  *   . ... ..        .    ..

verse pt2
]--------------------------------------------------|----------------------[
]--------------------------------------------------|----------------------[
]--------------------------------------------------|----------------------[
]-------------------------------------------8--5-7-|----------------------[
]--------7\8-5---------3\4-1--------7\8-5---6--3-5-|--------7\8-5---------[
]-0-0-0--7\8-5--0-0-0--3\4-1--0-0-0-7\8-5----00-0--|-0-0-0--7\8-5--0-0-0--[
  . . .         . . .         . . .          .. .    . . .         . . .
]------------------------------|------------------[
]------------------------------|------------------[
]------------------------------|------------------[
]-----------------------8--5-7-|-7----------------[
]-3\4-1---------7\8-5---6--3-5-|-5------------3-5-[
]-3\4-1--0-0-0--7\8-5----00-0--|---000000000--3-5-[
         . . .           .. .      .........

]---------------------------------------------------|-------------------[
]---------------------------------------------------|-------------------[
]--------------------------7------------------------|-------------------[
]----------------------5\7-5------------------------|-7-----------------[
]--------7\8-5---------3\5----------7\8-5---8--5-7--|-5------------3-5--[
]-0-0-0--7\8-5--0-0-0--------0-0-0--7\8-5----00-0---|---000000000--3-5--[
  . . .         . . .        . . .           .. .       .........

pre chorus - this is one of the parts that im not sure about
]-------0---------0---------0--5----------------[
]--------6---------0---------6--6---0-----------[
]----7----7----6----6----7----7--7---6----------[
]--7----------7---------7-------------7---------[
]5----------7----------5------------------------[
]-----------------------------------------------[


chorus - another one of the parts not sure about
]-----------------------------------------|-------------------------------[
]-----------------------------------------|-------------------------------[
]-----------------------------------------|-------------------------------[
]-12\13----13----12\13---13-----12\13---13|-7\8-----------8-----8-7-8-7\8-[
]-11\12----12----11\12---12-----11\12---12|-8\9-000000000-9-000-9-8-9-8\9-[
]-------0-----00-------0----00--------0---|-------------------------------[

then you do everything you just played(exept intro) again. then this part comes in       
   sorry i couldnt figure out the solo

breakdown
........EMBRACING EMBRACE ANNIHIALATION
]-------------------------------------------|------------------------------[
]-------------------------------------------|------------------------------[
]-------------------------------------------|------------------------------[
]-------------------------------------------|------------------------------[
]-0-0-0-0---0-0-0-0-0----------0-0-0--3-5-6-|-0-0-0-0---0-0-0-0-0----------[
]-0-0-0-0---0-0-0-0-0--000-0---0-0-0--3-5-6-|-0-0-0-0---0-0-0-0-0--000-0---[
  . . . .   . . . . .  ... .   . . .          . . . .   . . . . .  ... .
]----------------------[
]----------------------[
]----------------------[
]----------------------[
]-0-0-0-----0-0-0------[
]-0-0-0--\4-0-0-0--\5--[
  . . .     . . .

key
.=palm mute
\slide
*pinch harmonic

please rate put your comments and corrections
but also remember this is my first tab so go easy on me
Suggest correction
Give kudos to tab author, rate the tab!
1 2 3 4 5
comments
print report bad tab
guest
You may want to rate the tab now too:
select rating
Wanna post a correction for this tab? Suggest correction