Oops, an error
Loading. Please wait.

Enlightened By The Cold Tab

version 1
version 1

Whole song

Interactive

6,542 views 3 this week
6 commentsread comments
1 2 3 4 5
excellent!
x 8
add to favorites
launch autoscroll
font size
0
reset
how to read this tab
guitar tuner
Autoscroll
slow
fast
+/-
esc
set tempo
stop
Help us to improve Ultimate-Guitar.com Take our survey!
×
Author
Shadows Fall - Enlightened By The Cold - #2
from "The War Within"
email: hollowseedaxeman@hotmail.com
Tuning: C G C F A D (low to high, I recommend 11's or 12's for this tuning)

» intro
D|----------------------|----------------------|----------------------|---------------------|
A|----------------------|----------------------|----------------------|---------------------|
F|----------------------|----------------------|----------------------|---------------------|
C|----------------------|----------------------|----------------------|---------------------|
G|--5/6--0-0--3\2--0-0--|--3/5--0-0--1p0--0-0--|--5/6--0-0--3\2--0-0--|--0-----3-----3--*5--|
C|--5/6--0-0--3\2--0-0--|--3/5--0-0--1p0--0-0--|--5/6--0-0--3\2--0-0--|--0--5-----5---------|
       pm...       ...          ...       ...          ...       ...     .  .     .

» second ending, only difference is pinch harmonic...
D|---------------------|
A|---------------------|
F|---------------------|
C|---------------------|
G|--0-----3-----3------|
C|--0--5-----5-----*5--|
     pm.     .


» verse riff                            (double-time feel riff)
D|-------------------------------------|--------------------------------------|
A|-------------------------------------|--------------------------------------|
F|-------------------------------------|--------------------------------------|
C|-------------------------------------|--------------------------------------|
G|--1p0--0-0--0-------0--3--0--6\5--0--|--1p0--0-0-0-0-0-0-0-0--3--0--6\5--0--|
C|--1p0--0-0--0-------0--3--0--6\5--0--|--1p0--0-0-0-0-0-0-0-0--3--0--6\5--0--|
       pm...                .       .          ...............     .       . 


» Matts root riff                             (Second ending)
D|-------------------------------------------|-----------------------------------------|
A|-------------------------------------------|-----------------------------------------|
F|-------------------------------------------|-----------------------------------------|
C|------------------------------------8-7----|------------5-----3-----------3-----2----|
G|--1p0-------5-----7-----8-----7---------8--|--1p0-------------------5-------------3--|
C|--1p0--0-0-----0-----0-----0-----0---------|--1p0--0-0-----0-----0-----0-----0-------|
       pm...     .     .     .     .                 ...     .     .     .     .


» Jons "Thirds" riff                          (Second Ending)
D|-------------------------------------------|-----------------------------------------|
A|-------------------------------------------|-----------------------------------------|
F|------------------------------------7p5----|-----------------------------------------|
C|------------3-----5-----7-----5---------7--|------------8-----7-----------7-----5----|
G|--1p0--------------------------------------|--1p0-------------------8-------------7--|
C|--1p0--0-0-----0-----0-----0-----0---------|--1p0--0-0-----0-----0-----0-----0-------|
       pm...     .     .     .     .                 ...     .     .     .     .

» Pre-chorus
D|----------------------------------------------------------------------|
A|----------------------------------------------------------------------|
F|--7--7-7-7--7-7-7-7--7-7-7-7--7-7-7-7/9--9-9-9-9-9-9--9-9-9-9--9-9-9--|
C|--x--x-x-x--x-x-x-x--x-x-x-x--x-x-x-x-x--x-x-x-x-x-x--x-x-x-x--x-x-x--|
G|--5--5-5-5--5-5-5-5--5-5-5-5--5-5-5-5/7--7-7-7-7-7-7--7-7-7-7--7-7-7--|
C|----------------------------------------------------------------------|


» Chorus                                          (ending)
D|-----------------------------------------------|-------------|
A|-----------------------------------------------|-------------|
F|--5-/-7--7-7-7-/-10-10-10-10-\-7--7-7-7--------|-------------|
C|--x---x--x-x-x----x--x--x--x---x--x-x-x--------|-------------|
G|--3-/-5--5-5-5-/--8--8--8--8-\-5--5-5-5--0--0--|--0-0---0-0--|
C|-----------------------------------------0--0--|--0-0---0-0--|
                                         pm....

» Breakdown Riff
D|------------------------------------------|--------|
A|------------------------------------------|--------|
F|------------------------------------------|--------|
C|-------------3---------5-------------2----|--3--2--|
G|--0--0--0--5---5-----3---3--0-0-0------3--|--1--0--|
C|--0--0--0---------0---------0-0-0--3------|--------|


» Jon Donais Solo
D|------5-8-5\-----------5-3-1------|------5-8-5-------10-13-10------------------|
A|-----------------------------3/5--|------------8/11----------------------------|
F|--5-7--------5-3-2-3-2------------|--5-7----------------------12-------12/14~--|
C|----------------------------------|------------------------------15-12---------|
G|----------------------------------|--------------------------------------------|
C|----------------------------------|--------------------------------------------|
  pm...          .......               ...                         .....

» solo continued (hold and release the bend)
D|-------------------------------------|-----------15-17-18-17-15-17-15--...
A|------18-----------------20------20--|--15-17-18-----------------------...
F|--17B/-\--17b/\-15---19B/-\--19B/-\--|---------------------------------...
C|-------------------------------------|---------------------------------...
G|-------------------------------------|---------------------------------...
C|-------------------------------------|---------------------------------...


D|-----------15-17-18-17-15-17-15--------------------------------------|
A|--15-17-18-----------------------15-17-18-17-15----------------------|
F|-------------------------------------------------17-15-14---17~~~~~--|
C|---------------------------------------------------------------------|
G|---------------------------------------------------------------------|
C|---------------------------------------------------------------------|


» Matts solo "Backup" riff
D|-----------------------------------|----------------------------------|
A|-----------------------------------|----------------------------------|
F|-----------------------------------|----------------------------------|
C|-----------7---------5-------------|-----------7---------5-------3-2--|
G|--0-0-0-0--5--0-0-0--3--0-0--3--2--|--0-0-0-0--5--0-0-0--3--0-0--1-0--|
C|--0-0-0-0-----0-0-0-----0-0--3--2--|--0-0-0-0-----0-0-0-----0-0-------|
  pm.......     .....     ...           .......     .....     ...


Ending riff (Jons "Thirds" version)
D|----------------------------------------|
A|----------------------------------------|
F|----------------------------------------|
C|-----------7---------8-------------5----|
G|--0-0-0--8---8--0--7---7--0-0-0------7--|
C|--0-0-0---------0---------0-0-0--7------|

Enjoy!
Suggest correction
comments
print report bad tab
6 comments total. Showing first comments.
0 reply
notbychoice 125 wrote on November 11 2004, 12:00 am

you couldnt really go wrong as it shows u how to play it on the dvd that comes with the album! lol But great!

0 reply
kornrules09 20 wrote on May 23 2005, 12:00 am

yeah, but I found it hard to figure it out so I came here.

0 reply
kornrules09 20 wrote on May 23 2005, 12:00 am

yeah, but I found it hard to figure it out so I came here.

guest
You may want to rate the tab now too:
select rating
Wanna post a correction for this tab? Suggest correction