Oops, an error
Loading. Please wait.

Enlightened By The Cold Tab

version 2
version 2

Whole song

Interactive

362 views 1 this week
1 commentread comment
1 2 3 4 5
please rate
add to favorites
launch autoscroll
font size
0
reset
how to read this tab
guitar tuner
Autoscroll
slow
fast
+/-
esc
set tempo
stop
Help us to improve Ultimate-Guitar.com Take our survey!
×
Author
___________________________________________________
Shadows Fall - Enlightened By The Cold
___________________________________________________
Tabbed By: Andrew McGuire
E-Mail: soulnirvana7@hotmail.com

This is my first time writing a tab, so if you have any corrections, tell me.

Dropped C tuning is reccommended (C G C F A D)

The periods underneath the bars indicate which notes are to be palm muted

KEY:
/=Slide
*=Harmonic
*~=Harmonic+Bend
p=Pull Off
h=Hammer On
b=bend
~=bend up and down multiple times

Intro (Both Guitars)
D--------------------------------------------------| Repeat
A--------------------------------------------------|
F--------------------------------------------------| This
C--------------------------------------------------|
G--5/6-00-3/2-00-3/5-00-1p0-00-5/6-00-3/2-3333-5*~-| Twice
C--5/6-00-3/2-00-3/5-00-1p0-00-5/6-00-3/2----------|
       ..     ..     ..     ..     ..     ....


Verse One- Guitar One
D--------------------------------------------------|
A--------------------------------------------------|
F--------------------------------------------------|
C----------------------------------------7h8p7-----|
G--1p0-000----0-3-0-6-5-0-3--0---5-7-8-7-------8---|
C--1p0-000----0-3-0-6-5-0-3--0---------------------|
       ...

D-------------------------------------------------|
A-------------------------------------------------|
F-------------------------------------------------|
C--------------------------------5-3---3-2~-------|
G--1p0-000----0-3-0-6-5-0-3--0-------5------------|
C--1p0-000----0-3-0-6-5-0-3--0--------------------|
       ...


Verse One- Guitar Two
D--------------------------------------------------|
A--------------------------------------------------|
F-----------------------------------------5h7p5----|
C---------------------------------3-5-7-5------7---|
G--1p0-000----0-3-0-6-5-0-3--0---------------------|
C--1p0-000----0-3-0-6-5-0-3--0---------------------|
       ...

D---------------------------------------------------|
A---------------------------------------------------|
F---------------------------------------------------|
C---------------------------------8-7---7-5---------|
G--1p0-000----0-3-0-6-5-0-3--0--------8----7~-------|
C--1p0-000----0-3-0-6-5-0-3--0----------------------|
       ...

Verse Two- Guitar One
D-------------------------------------------------|
A-------------------------------------------------|
F-------------------------------------------------|
C-----------------------------------------7h8p7---|
G--1p0-0000000-0-3-0-6-5-0-3--0---5-7-8-7-------8-|
C--1p0-0000000-0-3-0-6-5-0-3--0-------------------|
       .......

D-------------------------------------------------|
A-------------------------------------------------|
F-------------------------------------------------|
C--------------------------------5-3---3-2~-------|
G--1p0-0000000-0-3-0-6-5-0-3--0------5------------|
C--1p0-0000000-0-3-0-6-5-0-3--0-------------------|
       .......

Verse Two- Guitar Two
D-------------------------------------------------|
A-------------------------------------------------|
F-----------------------------------------5h7p5---|
C---------------------------------3-5-7-5------7--|
G--1p0-0000000-0-3-0-6-5-0-3--0-------------------|
C--1p0-0000000-0-3-0-6-5-0-3--0-------------------|
       .......

D-------------------------------------------------|
A-------------------------------------------------|
F-------------------------------------------------|
C---------------------------------8-7---7-5-------|
G--1p0-0000000-0-3-0-6-5-0-3--0-------8----7~-----|
C--1p0-0000000-0-3-0-6-5-0-3--0-------------------|
       .......

Pre-Chorus - Both Guitars
D--------------------------------------------|
A--------------------------------------------|
F--7-7-7-7-7-7-7-7-7-7-7/9-9-9-9-9-9-9-9-9-9-|
C--x-x-x-x-x-x-x-x-x-x-x-x-x-x-x-x-x-x-x-x-x-|
G--5-5-5-5-5-5-5-5-5-5-5/7-7-7-7-7-7-7-7-7-7-|
C--------------------------------------------|

Chorus - Both Guitars
D-------------------------------------------| Repeat
A-------------------------------------------|
D--5/7-7-7-7/10-10-10-10-10-10/7-7-7-7------| This
C--x-x-x-x-x--x--x--x--x--x--x/x-x-x-x------|
G--3/5-5-5-5/-8--8--8--8--8--8/5-5-5-5------| Twice
C-------------------------------------------|

Repeat both Chorus and Pre-Chorus

On Second run through, do this
D--------|
A--------|
F--------|
C--------|
G--00-00-|
C--00-00-|
   .. ..
Verse Three - Guitar One
D--------------------------------------------------|
A--------------------------------------------------|
F-----------------------------------------5h7p5----|
C---------------------------------3-5-7-5------7---|
G--1p0-000----0-3-0-6-5-0-3--0---------------------|
C--1p0-000----0-3-0-6-5-0-3--0---------------------|
       ...

D-------------------------------------------------|
A-------------------------------------------------|
F-------------------------------------------------|
C---------------------------------8-7---7-5-------|
G--1p0-000----0-3-0-6-5-0-3--0--------8----7~-----|
C--1p0-000----0-3-0-6-5-0-3--0--------------------|
       ...

Verse Three - Guitar Two
D-------------------------------------------------|
A-------------------------------------------------|
F-----------------------------------------5h7p5---|
C---------------------------------3-5-7-5------7--|
G--1p0-000----0-3-0-6-5-0-3--0--------------------|
C--1p0-000----0-3-0-6-5-0-3--0--------------------|
       ...

D-------------------------------------------------|
A-------------------------------------------------|
F-------------------------------------------------|
C---------------------------------8-7---7-5-------|
G--1p0-000----0-3-0-6-5-0-3--0--------8----7~-----|
C--1p0-000----0-3-0-6-5-0-3--0--------------------|
       ...

Verse Four - Guitar One
D---------------------------------------------------|
A---------------------------------------------------|
F---------------------------------------------------|
C-----------------------------------------7h8p7-----|
G--1p0-0000000-0-3-0-6-5-0-3--0---5-7-8-7-------8---|
C--1p0-0000000-0-3-0-6-5-0-3--0---------------------|
       .......

D-------------------------------------------------|
A-------------------------------------------------|
F-------------------------------------------------|
C--------------------------------5-3---3-2~-------|
G--1p0-0000000-0-3-0-6-5-0-3--0------5------------|
C--1p0-0000000-0-3-0-6-5-0-3--0-------------------|
       .......

Verse Four - Guitar Two
D-------------------------------------------------|
A-------------------------------------------------|
F-----------------------------------------5h7p5---|
C---------------------------------3-5-7-5------7--|
G--1p0-0000000-0-3-0-6-5-0-3--0-------------------|
C--1p0-0000000-0-3-0-6-5-0-3--0-------------------|
       .......

D-------------------------------------------------|
A-------------------------------------------------|
F-------------------------------------------------|
C---------------------------------8-7---7-5-------|
G--1p0-0000000-0-3-0-6-5-0-3--0-------8----7~-----|
C--1p0-0000000-0-3-0-6-5-0-3--0-------------------|
       .......

Pre-Chorus - Both Guitars
D--------------------------------------------|
A--------------------------------------------|
F--7-7-7-7-7-7-7-7-7-7-7/9-9-9-9-9-9-9-9-9-9-|
C--x-x-x-x-x-x-x-x-x-x-x-x-x-x-x-x-x-x-x-x-x-|
G--5-5-5-5-5-5-5-5-5-5-5/7-7-7-7-7-7-7-7-7-7-|
C--------------------------------------------|

Chorus - Both Guitars
D-------------------------------------------| Repeat
A-------------------------------------------|
D--5/7-7-7-7/10-10-10-10-10-10/7-7-7-7------| This
C--x-x-x-x-x--x--x--x--x--x--x/x-x-x-x------|
G--3/5-5-5-5/-8--8--8--8--8--8/5-5-5-5------| Twice
C-------------------------------------------|

Repeat both Chorus and Pre-Chorus

Bridge - Both Guitars
D-----------------------Repeat ---------|
A-----------------------       ---------|
F-----------------------Three  ---------|
C--------3----5-------2--      ---------|
G--000-5--0-3---0000-3--Times  000-3--2-|
C--000----0-----0000----       000-3--2-|
   ...    .     ....    Then   ...

Solo - Guitar One
D|------5-8-5\-----------5-3-2------|------5-8-5-------10-12-10------------------|
A|-----------------------------3/5--|------------8/10----------------------------|
F|--5-7--------5-3-2-3-1------------|--5-7----------------------12-------12/14~--|
C|----------------------------------|------------------------------15-12---------|
G|----------------------------------|--------------------------------------------|
C|----------------------------------|--------------------------------------------|
    . .          . . . .               . .                          .  .

D|-------------------------------------|-----------15-17-18-17-15-17-15--...
A|------18-----------------20------20--|--15-17-18-----------------------...
F|--17B-----17b---15---19B----19B------|---------------------------------...
C|-------------------------------------|---------------------------------...
G|-------------------------------------|---------------------------------...
C|-------------------------------------|---------------------------------...


D|-----------15-17-18-17-15-17-15--------------------------------------|
A|--15-17-18-----------------------15-17-18-17-15----------------------|
F|-------------------------------------------------17-15-14---17~~~~~--|
C|---------------------------------------------------------------------|
G|---------------------------------------------------------------------|
C|---------------------------------------------------------------------|

Solo - Guitar Two
D----------------------|
A----------------------|
F----------------------|
C-------7-----5--------|
G--0000-5-000-3-00-3-2-|  Repeat Four Times
C--0000---000---00-3-2-|

Verse Five - Guitar One
D--------------------------------------------------|
A--------------------------------------------------|
F-----------------------------------------5h7p5----|
C---------------------------------3-5-7-5------7---|
G--1p0-000----0-3-0-6-5-0-3--0---------------------|
C--1p0-000----0-3-0-6-5-0-3--0---------------------|
       ...

D-------------------------------------------------|
A-------------------------------------------------|
F-------------------------------------------------|
C---------------------------------8-7---7-5-------|
G--1p0-000----0-3-0-6-5-0-3--0--------8----7~-----|
C--1p0-000----0-3-0-6-5-0-3--0--------------------|
       ...

Verse Five - Guitar Two
D-------------------------------------------------|
A-------------------------------------------------|
F-----------------------------------------5h7p5---|
C---------------------------------3-5-7-5------7--|
G--1p0-000----0-3-0-6-5-0-3--0--------------------|
C--1p0-000----0-3-0-6-5-0-3--0--------------------|
       ...

D-------------------------------------------------|
A-------------------------------------------------|
F-------------------------------------------------|
C---------------------------------8-7---7-5-------|
G--1p0-000----0-3-0-6-5-0-3--0--------8----7~-----|
C--1p0-000----0-3-0-6-5-0-3--0--------------------|
       ...

Verse Six- Guitar One
D-------------------------------------------------|
A-------------------------------------------------|
F-------------------------------------------------|
C----------------------------------------7h8p7----|
G--1p0-0000000-0-3-0-6-5-0-3--0---5-7-8-7-------8-|
C--1p0-0000000-0-3-0-6-5-0-3--0-------------------|
       .......

D-------------------------------------------------|
A-------------------------------------------------|
F-------------------------------------------------|
C--------------------------------5-3---3-2~-------|
G--1p0-0000000-0-3-0-6-5-0-3--0------5------------|
C--1p0-0000000-0-3-0-6-5-0-3--0-------------------|
       .......

Verse Six - Guitar Two
D-------------------------------------------------|
A-------------------------------------------------|
F-----------------------------------------5h7p5---|
C---------------------------------3-5-7-5------7--|
G--1p0-0000000-0-3-0-6-5-0-3--0-------------------|
C--1p0-0000000-0-3-0-6-5-0-3--0-------------------|
       .......

D-------------------------------------------------|
A-------------------------------------------------|
F-------------------------------------------------|
C---------------------------------8-7---7-5-------|
G--1p0-0000000-0-3-0-6-5-0-3--0-------8----7~-----|
C--1p0-0000000-0-3-0-6-5-0-3--0-------------------|
       .......

Pre-Chorus - Both Guitars
D--------------------------------------------|
A--------------------------------------------|
F--7-7-7-7-7-7-7-7-7-7-7/9-9-9-9-9-9-9-9-9-9-|
C--x-x-x-x-x-x-x-x-x-x-x-x-x-x-x-x-x-x-x-x-x-|
G--5-5-5-5-5-5-5-5-5-5-5/7-7-7-7-7-7-7-7-7-7-|
C--------------------------------------------|

Chorus - Both Guitars
D-------------------------------------------| Repeat
A-------------------------------------------|
D--5/7-7-7-7/10-10-10-10-10-10/7-7-7-7------| This
C--x-x-x-x-x--x--x--x--x--x--x/x-x-x-x------|
G--3/5-5-5-5/-8--8--8--8--8--8/5-5-5-5------| Twice
C-------------------------------------------|

Repeat both Chorus and Pre-Chorus

Bridge Two - Both Guitars
D-----------------------Repeat ---------|
A-----------------------       ---------|
F-----------------------Three  ---------|
C--------3----5-------2--      ---------|
G--000-5--0-3---0000-3--Times  000-3--2-|
C--000----0-----0000----       000-3--2-|
   ...    .     ....    Then   ...

Outro
D-----------------------Repeat ------------|
A-----------------------       ------------|
F-----------------------Four   ------------|
C--------3----5-------2-       ------------|
G--000-5--0-3---0000-3--Times  000-3--2--0-|
C--000----0-----0000----       000-3--2--0-| (Let Ring)
   ...    .     ....    Then   ...

Enjoy! And please rate this tab!
Suggest correction
What's this?
You can suggest a correction to this tab. Community and Mods will review your correction and vote to approve or reject it.
comments
We did not receive enough feedback on this tab! Please rate:
print report bad tab
1 2 3 4 5
1 comment total.
0 reply
wiccan205 11 wrote on June 29 2005, 12:00 am

u need to ***ing to listen the goddamn song a fue more times or quit playing guitar


P.S. if u need to get the correct tab for this song u can contact me at wiccan205@yahoo.com

guest
You may want to rate the tab now too:
select rating
Please do not post tabs as comments. Select "correction" instead!