Oops, an error
Loading. Please wait.

Final Call Tab

version 1
version 1

Intro

Interactive

2,921 views 1 this week
1 commentread comment
1 2 3 4 5
please rate
add to favorites
launch autoscroll
font size
0
reset
how to read this tab
guitar tuner
Tab Pro tools
  • play this tab
  • loop segment
  • change instrument
  • show fretboard
  • metronome
×
Best way to learn
"Final Call"
Autoscroll
slow
fast
+/-
esc
set tempo
stop
Difficulty
Tuning
intermediate
D A D G B E
This is the intro to final call by shadows fall
off their new album Threads of Life.
I will add the rest of the tab
as soon as i figure it out.

Tuning: Drop D (D A D G B e)
Intro:

e|----------------------------------|
B|-----5-6-5------6----------8---8--|
G|----7---------7---7-------9---9---|
D|--7---------8-------8---10--10----|
A|----------------------------------|
D|----------------------------------|

e|-----------------------------------------------------------|
B|---5-6-5-------5-6-5------6---5----------------------------|
G|--7--------7---------7---7---6-----------------------------|
D|-8-------7---7----------8---7------------------------------|
A|-----------------------------------------------------------|
D|-----------------------------------------------------------|
comments
We did not receive enough feedback on this tab! Please rate:
print report bad tab
1 2 3 4 5
1 comment total.
+1 reply
AwokenDEMON wrote on October 19 2010, 07:52 pm

Dude... The intro goes like this:

PM PM PM PM PM PM PM PM PM PM PM PM PM PM PM PM
E E E E E E E E E E E E E E E E
E||--------------------------|--------------------------|
B||--------5--6--5--------6--|--5--------5--8-----5--8--|
G||-----7--------------7-----|-----7--5--------5--------|
D||--7--------------8--------|--------------------------|
A||--------------------------|--------------------------|
D||--------------------------|--------------------------|

PM PM PM PM PM PM PM PM PM PM PM PM PM PM PM PM
E E E E E E E E E E E E E E E E
--------------------------|--------------------------|
--------5--6--5--------6--|--5-----------6--------5--|
--5--7--------------7-----|-----7-----7--------7-----|
-----------------8--------|--------8--------7--------|
--------------------------|--------------------------|
--------------------------|--------------------------|

I want to post or [tab]
guest
You may want to rate the tab now too:
select rating
Please do not post tabs as comments. Select "correction" instead!