Oops, an error
Loading. Please wait.

Fire In Babylon Tab

3,658 views 3 this week
5 commentsread comments
1 2 3 4 5
worth learning
x 8
add to favorites
launch autoscroll
font size
0
reset
how to read this tab
guitar tuner
Tab Pro tools
  • play this tab
  • loop segment
  • change instrument
  • show fretboard
  • metronome
×
Best way to learn
"Fire In Babylon"
Autoscroll
slow
fast
+/-
esc
set tempo
stop
-------------------------------------------------------------------------------
                             FIRE IN BABYLON - Shadows Fall
-------------------------------------------------------------------------------
Tabbed by: Kevin Qamaniq-Mason
Email: kq.mason@gmail.com

Tuning: D-Standard

$ ping
/ slide
. palm mute
H hammer on
P pull-off
~ vibrato

intro
Gtr.1
                                H P
|-----------|--------------------------------------|
|-----------|--------------------------------------|
|-----------|--------------------------------------|
|-----------|--------------------------------------|
|-7---3---5-|-7-7---7--7-5-8-7-5-7-5/3-3-3--/5-3-5-|
|-5---1---3-|-5-5---5------------------1-1-------3-|

Gtr.2
        $~             $~                 $~          $~
|-------------------------------------------------------|
|---5--------------5------------------------------------|
|-----4-5--4-7-5-----4-5--4-7-5----7---5--4----7---5--4-|
|-7--------------7---------------5---7-------5---7------|
|-------------------------------------------------------|
|-------------------------------------------------------|

Gtr.3 (after Gtr.2 plays once)

|-------------------------------------------------------|
|---8--------------8------------------------------------|
|-----7-9--7-10-9----7-9--7-10-9---10--7------10---7----|
|-10-------------10--------------9---10--10--9---10--10-|
|-------------------------------------------------------|
|-------------------------------------------------------|

right side of slash denotes Gtr. 2
|-------------------------------------|
|-------------------------------------|
|-------------------------------------|
|-------------------------------------|
|-------------------------------------|
|-2/5--3/7--8/12--7/10--5/8--3/7--5/8-|

main riff
Gtr.1
  . .   .     . .   .       . . .  . .   .     . .   .
|----------------------------------------------------------------|
|----------------------------------------------------------------|
|----------------------------------------------------------------|
|-----7---7-------5---5----------------3---3-0-----5---5-2-----2-|
|-----------8-----------7----------------------------------0--0--|
|-5-5---5-----5-5---5-----8-5-5-5--1-1---1-----3-3---3-----------|

Gtr.2 pick slides in
  . .   .     . .   .       . ...  . .   .     . .   .
|----------------------------------------------------------------|
|--------------------------------------------------3---3---------|
|-----5---5----------------------------2---2-------------4-----4-|
|-----------7-----9---9-5--------------------3-------------5--5--|
|-------------------------7--------------------------------------|
|-5-5---5-----5-5---5-------555-5--1-1---1-----3-3---3-----------|

"chant down babylon"
|---------------0-|
|---------------0-|
|-----------------|
|-2--4--5--7------|
|-0--2--3--5--3---|
|-------------1---|

   ... .  . ...   ...       .... P .... .. P .... P ....
|---------------------------------------------------------|
|---------------------------------------------------------|
|---------------------------------------------------------|
|---------------------------------------------------------|
|-8---7-10-8---7-8---7-10--8----7-5----8--7-5----7-5----8-|
|--000-0--0-000---000-------5555---5555-55---5555---5555--|

   ... .  . ...   ...       .... P .... .. P ....  . .
|------------------------------------------------------|
|------------------------------------------------------|
|------------------------------------------------------|
|------------------------------------------------------|
|-8---7-10-8---7-8---7-10--8----7-5----8--7-5----8----5|
|--000-0--0-000---000-------5555---5555-55---5555--5-5-|

"a eulogy..."
|-------------|
|-------------|
|-------------|
|-------------|
|-7-7--5-7--3-|
|-5-5--3-5--1-|

Gtr.1

|---------------------------------------------------|
|---------------------------------------------2-----|
|-------------------------------------------0---0---|
|-2-0---3-2-0----2-0-2---2-0---3-2-0------3-------3-|
|-------------0----------------------0--0-----------|
|-----3----------------1-----3----------------------|

Gtr.2

|--------------------------------------|
|--------------------------------------|
|--------------------------------------|
|-2-0---3-2-0----5-4-5---2-0---3-2-0---|
|-------------3----------------------0-|
|-----3----------------1-----3---------|

     . .        . . . . . .     . .
|---------------------------------------|
|---------------------------------------|
|---------------------------------------|
|---------------------------------------|
|-3--3-3-3/5-2--2-2-2-2-2-2--3--3-3-3/5-|
|-1--1-1-1/3-0--0-0-0-0-0-0--1--1-1-1/3-|

Gtr.1
            ~
|-------------|
|-------------|
|---------5-4-|
|-5-7-5-3-----|
|-------------|
|-------------|

Gtr.2
            ~
|-------------|
|---------5-3-|
|-4-5-4-2-----|
|-------------|
|-------------|
|-------------|

I didn't bother with the interlude, don't really like it, ruins the song.

Outro

Gtr.1
                      ~                        ~
|-5----------------------------------------------|
|---5--------------------------------------------|
|-----4-5-4-5/7-5-4-5-4----7---4---4-5--4---4-/7-|
|-7----------------------5---7---7--------7------|
|------------------------------------------------|
|------------------------------------------------|

                                                   ~
|---5-7-8-7-5-/10-8-7-8-7-5--------------------------|
|-8--------------------------------------------------|
|------------------------------5-4-/7-5-4-/9-7-5-7-5-|
|----------------------------7-----------------------|
|----------------------------------------------------|
|----------------------------------------------------|

Gtr.2
                        ~                           ~~
|------------------------------------------------------|
|----8-------------------------------------------------|
|------7-9-7-9-10-9-7-9-7----10----7----7-9-7----7-/10-|
|-10-----------------------9----10---10-------10-------|
|------------------------------------------------------|
|------------------------------------------------------|

This harmonizing's still uncertain
                                                                ~
|----9-10-12-10-9-/14-12-10-12-10-9-------------------------------|
|-12--------------------------------------------------------------|
|---------------------------------------9-7-/10-9-7-/12-10-9-10-9-|
|------------------------------------10---------------------------|
|-----------------------------------------------------------------|
|-----------------------------------------------------------------|


|---------------------------|
|---------------------------|
|---------------------------|
|-2--4--5--7--------5--4--2-|
|-0--2--3--5--3--5--3--2--0-|
|-------------1--3----------|
comments
print report bad tab
5 comments total. Showing first comments.
0 reply
LordInferno wrote on January 23 2005, 12:00 am

Nice Tab man only problem is for the intro you missed a muted pinch harmonic,.. listen to the intro closely and you will hear it

Good tab keep it up man

0 reply
guitarman47 wrote on June 25 2005, 12:00 am

u missed the solo too

0 reply
shadowofbodom wrote on August 15 2005, 12:00 am

i just want the first solo thingy... the really fast staccato part. thats the only thing i wanted

I want to post or [tab]
guest
You may want to rate the tab now too:
select rating
Please do not post tabs as comments. Select "correction" instead!