Oops, an error
Loading. Please wait.

Forevemore Tab

2,136 views 1 this week
2 commentsread comments
1 2 3 4 5
x 3
add to favorites
launch autoscroll
font size
0
reset
how to read this tab
guitar tuner
Autoscroll
slow
fast
+/-
esc
set tempo
stop
Help us to improve Ultimate-Guitar.com Take our survey!
×
Author
Difficulty
Tuning
intermediate
D A D G B E
-------------------------------------------------------------------------------
    Forevermore - Shadows Fall
-------------------------------------------------------------------------------
Tabbed by: Jamie
Email: the-thorn-in-ur-eye@hotmail.co.uk

Tuning: Drop D (DADGBe)


 "Intro" (0:00 - 0:11)

e|------------------------------------------|-----------------------------------------------------|
B|------------------------------------------|-----------------------------------------------------|
G|------------------------------------------|-----------------------------------------------------|
D|--7---------8---------7-----5-----7-----8-|-3---------3---------3----------5---------7-----7----|
A|--5-5-5-5-5-5-5-5-5-5-5-5-5-5-5-5-5-5-5-5-|-1-1-1-1-1-1-1-1-1-1-1----------5---------7-----7----|
D|------------------------------------------|------------------------5-5-5-5-5-5-5-5-5-7-7-7-7----|
 PM   . . . .   . . . .   . .   . .   . .       . . . .   . . . .    . . . .   . . . .   . .

e|-------------------------------------------------------|----------------------------------------|
B|-------------------------------------------------------|----------------------------------------|
G|-------------------------------------------------------|----------------------------------------|
D|------7---------8---------7-----10--------10--------10-|-----5-----5-----5-----5---3--2--5--6---|
A|--5-5-5-5-5-5-5-5-5-5-5-5-5-5-5-8-8-8-8-8-8-8-8-8-8-8--|-3-3-3-3-3-3-3-3-3-3-3-3---1--0--3--4---|
E|-------------------------------------------------------|----------------------------------------|
 PM . .   . . . .   . . . .   . .   . . . .   . . . .      . .   . .   . .   . .

 "Solo 1" (0:11 - 0:22)

e|--20b22-22--20b22-22--15-17-17b18r17b18r17-15-17~------|
B|-------------------------------------------------------|
G|-------------------------------------------------------|
D|-------------------------------------------------------|
A|-------------------------------------------------------|
E|-------------------------------------------------------|

e|-18-17-15--------------------------------------------|-----------------------------------------|
B|----------18-17-15-17-18-----------------------------|---------------------------15-----15---~-|
G|-------------------------17-15-14--------------------|---------------------------17b19--17b19~-|
D|----------------------------------17-15-14-15-17-15~-|-14-14-14-15-15-15-14-14-----------------|
A|-----------------------------------------------------|-----------------------------------------|
E|-----------------------------------------------------|-----------------------------------------|
                                                       PM .  .  .  .  .  .  .  .                

 "Verse" (0:22 - 0:45)

e|------------------------------------------|-----------------------------------------------------|
B|------------------------------------------|-----------------------------------------------------|
G|------------------------------------------|-----------------------------------------------------|
D|--7---------8---------7-----5-----7-----8-|-3---------3---------3----------5---------7-----7----|
A|--5-5-5-5-5-5-5-5-5-5-5-5-5-5-5-5-5-5-5-5-|-1-1-1-1-1-1-1-1-1-1-1----------5---------7-----7----|
D|------------------------------------------|------------------------5-5-5-5-5-5-5-5-5-7-7-7-7----|
 PM   . . . .   . . . .   . .   . .   . .       . . . .   . . . .    . . . .   . . . .   . .

e|-------------------------------------------------------|-----------------------------|
B|-------------------------------------------------------|-----------------------------|
G|-------------------------------------------------------|-----------------------------|
D|------7---------8---------7-----10--------10--------10-|-----5-----5-----5-----5-----|
A|--5-5-5-5-5-5-5-5-5-5-5-5-5-5-5-8-8-8-8-8-8-8-8-8-8-8--|-3-3-3-3-3-3-3-3-3-3-3-3-----|
E|-------------------------------------------------------|-----------------------------|
 PM . .   . . . .   . . . .   . .   . . . .   . . . .      . .   . .   . .   . .

e|-------------------------|-----------------------------------------------------------------------|
B|-------------------------|-----------------------------------------------------------------------|
G|-------------------------|-----------------------------------------------------------------------|
D|----------7----------5~--|--0--7--1--7--5--8-----------------------------------------------------|
A|----------7--3-3-3-3-3~--|--0--7--1--7--5--8--0--------------------------------------------------|
E|--7-7-7-7-7--------------|--0--7--1--7--5--8--0-0-0-0--0-0-0-0-0-0-0--0-0-0--0-0-0--0-0-0--0-0-0-|
 PM . . . .    . . . .                            . . .  . . . . . . .  . . .  . . .  . . .  . . .

e|-----------------------------------------------------------------------|
B|-----------------------------------------------------------------------|
G|-----------------------------------------------------------------------|
D|--0--7--1--7--5--8-----------------------------------------------------|
A|--0--7--1--7--5--8----------------------6-6-5-5~-----------------------|
E|--0--7--1--7--5--8--0-0-0-0-3-3-5-5-0-0--------------------------------|
 PM                   . . . . . . . . . . . . . . 



| /  slide up
| \  slide down
| h  hammer-on
| p  pull-off
| ~  vibrato
| +  harmonic
| PM Palm Muted note
| b  Bend note
| r  Return bend
===============================================================================
Suggest correction
Give kudos to tab author, rate the tab!
1 2 3 4 5
comments
print report bad tab
2 comments total.
0 reply
SilverSpurs616 310 Apr 01, 2009 05:40 AM

Correct so far, shame it's not complete. 4*

0 reply
shadowsfall979 10 May 27, 2009 12:44 AM

Not correct at all .Shadows fall is in dgcfad for this song. This is totally inaccurate and sounds really bad in drop d.

guest
You may want to rate the tab now too:
select rating
Wanna post a correction for this tab? Suggest correction