Oops, an error
Loading. Please wait.

Ghost Of Past Failures Bass Tab

348 views 1 this week
no commentswrite comment
1 2 3 4 5
please rate
add to favorites
launch autoscroll
font size
0
reset
guitar tuner
Autoscroll
slow
fast
+/-
esc
set tempo
stop
Help us to improve Ultimate-Guitar.com Take our survey!
×
Author
Shadows Fall - The Ghosts Of Past Failures

tuning (low to high) - C G C F

Riff 1 x1
|---------------------------------------------------------------------------------|
|---------------------------------------------------------------------------------|
|---------------------------------------------------------------------------------|
|-2-2-2-2-2-2-2-2-5-5-5-5-5-5-5-5-8-8-8-8-8-8-8-8-5-5-5-5-5-5-5-5-7-7-7-7-7-7-7-7-|

Riff 2 x1
|---------------------------------------------------------------|
|---------------------------------------------------------------|
|----7--5-5--5-------7--3-3--3-------7--2-2--2----2-------------|
|-7-0-0----00--00-7-0-0----00--00-7-0-0----00--00---00-7-7-00-7-|

Fill 1 x1
|----------------------|
|----------------------|
|----------------------|
|-7--------10-9-8-7----|

Riff 3 x2
|-----------------------------------------------------------------------|
|-----------------------------------------------------------------------|
|------------------------3p0-2p0-0-00-3p0-5p3-3-00-3p0-2p0-0-00-3p0-5p0-|
|-7------7p0-10p0--0-XX-------------------------------------------------|

Riff 4 x4						Fill 2 x1
|-----------------------------------------------|	|----------------|
|-------------3h5---5----2h3p2------------------|	|----------------|
|-2---2---2h3-----0---00------------------------|	|----------------|
|---0---0----------------------3333333333333333-|	|-3--5--8--3--7--|

Riff 2 x1

Riff 3 x2

Riff 4 x4

Fill 2 x1

Riff 3 x2

Fill 3 x2
|----------------------|
|----------------------|
|----------------------|
|-7----7----7----7--7--|

Riff 5 x2
|---------------------------------------------------------------------------------|
|---------------------------------------------------------------------------------|
|---------------------------------------------------------------------------------|
|-7777-7-77777-101010-101010-10-1010-1010-0-5-55-555-5-550-3-3333-3333-3-222-2222-|

Riff 6 x2
|-------------------------------------------------------|
|-------------------------------------------------------|
|------10--8-----10--10-----8----------10-8---10-10---8-|
|-10-10--10-10-10--10--10-10--10-10-8-8--8-8-8--8--8-8--|

Riff 5 x1

Riff 1 x1

Riff 2 x4
Suggest correction
Give kudos to tab author, rate the tab!
1 2 3 4 5
comments
print report bad tab
guest
You may want to rate the tab now too:
select rating
Please do not post tabs as comments. Select "correction" instead!