Oops, an error
Loading. Please wait.

In Effigy bass

version 1
version 1

Whole song

Interactive

1,481 views 3 this week
3 commentsread comments
1 2 3 4 5
x 3
add to favorites
×
Save as Personal and add changes to this tab that will be seen only by you. Learn more ›
×
You can save this tab as Personal to edit and correct it or add notes. All changes will be seen only by you. Learn more »
launch autoscroll
font size
0
reset
guitar tuner
backing track
0:00
0:00
edit
Autoscroll
slow
fast
+/-
esc
set tempo
stop
Author
Difficulty
Shadows Fall-In effigy
Album-Fallout from the war
Tuning-CGCF

if you have questions or corrections message me or e-mail to teh1idguyn2balls@comcast.net

~let it ring
/slide

Intro 0:00
|----------------------------------|
|----------------------------------|
|----------------------------------|
|-0333-0333---05-05-05-----05------|
0:06 (x2)
|----------------------------------------------------------------------------------|
|-----------------------------------------------353--------------------------------|
|-57--57------------33-55---57-57------------35----5---57-57-----------------------|
|--------0000000000---------------0000000000-----------------0000000000-3335344454-|

2nd time end
|-----|
|-----|
|--3~-|
|-----|
0:26 play along with drums then 0:30
|-------|                           |--------5---575--|
|-------|                           |---353-3-3/5---5-|
|--035--|                           |--3--------------|
|-------|                           |-----------------|
0:33      (x1) 0:35
|-------|------|-------|
|-------|------|-------|
|--035--|--55--|--057--|
|-------|------|-------|
0:43
|--------------------------------|
|--------------------------------|
|--------------------------------|
|-03-03-03-03-3-5-3-05-05-05-----|
0:48 (x2)
|----------------------------------------------------------------------------------|
|-----------------------------------------------353--------------------------------|
|-57--57------------33-55---57-57------------35----5---57-57-----------------------|
|--------0000000000---------------0000000000-----------------0000000000-3335344454-|
2nd time end
|-----|
|-----|
|--3~-|
|-----|
1:09      1:13                1:16
|-------| |--------5---575--| |-------|
|-------| |---353-3-3/5---5-| |-------|
|--035--| |--3--------------| |--035--|
|-------| |-----------------| |-------|
1:18
|------------------------------------|
|------------------------------------|
|000000000000333333333333555555555555|
|------------------------------------|
1:26
|-----------------------------------|
|-----------------------------------|
|-----------------------------------|
|-03-03-03--03-3-5-3-05-05-05-05-05-|
1:32 Bridge
|---------------------------------------------------|
|-----------3-53------------------------------------|
|-----------------5---------------------------------|
|-00---3---0-------0-0-0-0-0-0-0-0-0-00--3-5-3-5-7-5|
1:45 Solo           1:56
|------------------|---------------------|
|------------------|---------------------|
|333333333333333333|353555555555555555555|
|------------------|---------------------|
2:05 (x2)
|--------------|
|--------------|
|--------------|
|--3335344454~-|
2:13                                                                                    

|------------------------------------------------------------------------------|
|------------------------------------------------------------3-5---------------|
|---------------------------------------------------------------5--------------|
|3-5-3-0-1-0-3-0--3-5-3-0-2-33--3-5-3-0-1-0-3-0--3-5-3-0-2-0-------3-5-3-5-7-5-|
2:28 (x2)
|----------------------------------------------------------------|
|---------------------------3-5----------------------------------|
|------------------------------5---------------------------------|
|3-5-3-0-1-0-3-0--3-5-3-0-2-------3-5-3-0-1-0-3-0----3-5-3-5-7-5-|

2:38 (x2)
|----------------------------------------------------------------------------------|
|-----------------------------------------------353--------------------------------|
|-57--57------------33-55---57-57------------35----5---57-57-----------------------|
|--------0000000000---------------0000000000-----------------0000000000-3335344454-|
2nd time end
|-----|
|-----|
|--3~-|
|-----|
2:58                                3:03
|-------|                           |--------5---575--|
|-------|                           |---353-3-3/5---5-|
|--035--|                           |--3--------------|
|-------|                           |-----------------|
3:05      (x1) 3:08
|-------|------|
|-------|------|
|--035--|--55--|
|-------|------|
3:08
|------------------------------------|
|------------------------------------|
|000000000000333333333333555555555555|
|------------------------------------|
3:16
|----------------------------------|
|----------------------------------|
|----------------------------------|
|-03-03-03-03-3-5-3-05-05-05-05----|

            
            
Suggest correction
Creating personal tab
Creating personal tab
You can edit any tab online and save it as your Personal.

You can edit, replace or remove any tab part or add personal notes – all changes will be seen only by you.

Personal tabs can be accessed anytime from any device, even offline.
Learn more »
Give kudos to tab author, rate the tab!
1 2 3 4 5
comments
print report bad tab
3 comments total.
0 reply
corrda00 797 Feb 22, 2008 03:53 PM

Thanks dude, ive been waiting like a year to learn this song.

0 reply
zoastev 253 Apr 01, 2008 05:29 PM

your not serious? even the bass tab doesnt help much with the guitars rhythm part, and very very sure drop C is the wrong tuning
the right tuning should be either drop D or a whole step down
i'm gonna try tabbing the song by ear

0 reply
metal-man-93 10 Oct 13, 2009 08:50 PM

the song is in D

guest
You may want to rate the tab now too:
select rating
Wanna post a correction for this tab? Suggest correction