Oops, an error
Loading. Please wait.

Inspiration On Demand Tab

version 2
version 2

Whole song

Interactive

825 views 1 this week
no commentswrite comment
1 2 3 4 5
please rate
add to favorites
launch autoscroll
font size
0
reset
how to read this tab
guitar tuner
Autoscroll
slow
fast
+/-
esc
set tempo
stop
Help us to improve Ultimate-Guitar.com Take our survey!
×
Author
-------------------------------------------------------------------------------
                             Inspiration on Demand - Shadows Fall
-------------------------------------------------------------------------------
Tabbed by:kgerke77
Email:kgerke77@hotmail.com
this is my first tab so yea. it sounds pretty much all correct i didnt do the solo cuz i 
play that fast
Tuning:CGCFAD

Intro

D|----------------------------------------------------------------|
A|----------------------------------------------------------------|
F|---------3-3----------5---5/7---------3-3-----------------------|
C|---------3-3----------5---5/7---------3-3-----------------------|
G|-0-1-0---1-1--0-1-0-0-3-0-3/5---0-1-0-1-1--0-1-0-0-1h3-0-0-3h5--|
C|-0-1-0--------0-1-0-0---0-------0-1-0------0-1-0-0-1h3-0-0-3h5--|
PM                  . .   .                      . .     . .
  (lead)
D|-----------------------------------------/8--------------------------------|
A|------5--6--8-6-5~---------/8-10-8-10~------11-10-11~~---------------------|
F|-5/7-----------------------------------------------------------------------|
C|---------------------------------------------------------------------------|
G|---------------------------------------------------------------------------|
C|---------------------------------------------------------------------------|
  (rhythm)
D|---------------------------------------------------------------------------|
A|---------------------------------------------------------------------------|
F|---------------------------------------------------------------------------|
C|-777777777777----1010101010101010---55555555--0~~--------------------------|
G|-555555555555----8-8-8-8-8-8-8-8----33333333--0~~--------------------------|
C|------------------------------------33333333--0~~--------------------------|
  Verse (clean)
e|-----------0--------------------0--------------------0--------------------5--------|
B|--------6-----6--------------6-----6--------------6-----6--------------6-----6-----|x3
G|-----7-----------7~-------7-----------7~-------7-----------7~-------7-----------7~-|
D|--7--------------------7--------------------7--------------------7-----------------|
A|-----------------------------------------------------------------------------------|
E|-----------------------------------------------------------------------------------|

e|-----------0--------------------0--------------------0---------------------|
B|--------6-----6--------------6-----6--------------6-----6------------------|
G|-----7-----------7~-------7-----------7~-------7-----------7~--------------|
D|--7--------------------7--------------------7------------------------------|
A|---------------------------------------------------------------------------|
E|---------------------------------------------------------------------------|
  Chorus
e|----------------------------------------------------------------------|
B|----------------------------------------------------------------------|
G|-----------------5/77777--101010\9-10-1010/1212121212121212/14141414--|
D|--3-00-5-00-7----x/xxxxx--x-x-x-\x-x--x-x-/x-x-x-x-x-x-x-x-/x-x-x-x---|
A|--3-00-5-00-7----3/55555--8-8-8-\7-8--8-8-/1010101010101010/12121212--|
E|--3-00-5-00-7---------------------------------------------------------|
  PM  ..   ..
e|------------------------------------------------|    |----------|
B|------------------------------------------------|    |----------|
G|--5/77777--101010\9-10-1010\55555---------------|    |----------|
D|--x/xxxxx--x-x-x-\x-x--x-x-\xxxxx--3-00-5-00-7--|x2  |------0~~-|*only on second time
A|--3/55555--8-8-8-\7-8--8-8-\33333--3-00-5-00-7--|    |------0~~-|
E|-----------------------------------3-00-5-00-7--|    |------0~~-|
  PM                                   ..   ..

  Play verse again, chorus and introx2 then

  Bridge
e|-------------------------------------------------------------------------|
B|-------------------------------------------------------------------------|
G|-------------------------------------------------------------------------|
D|-134-134--6p4-0--8p6-0-3h5-1p0-000000--6p4-0-8p6-0-3h5-1p0-00134--6p4-0--|
A|-134-134--6p4-0--8p6-0-3h5-1p0-000000--6p4-0-8p6-0-3h5-1p0-00134--6p4-0--|
E|-134-134--6p4-0--8p6-0-3h5-1p0-000000--6p4-0-8p6-0-3h5-1p0-00134--6p4-0--|
 PM... ...      .      .         ......      .     .         .....      .

e|---------------------------------------------------|
B|---------------------------------------------------|
G|---------------------------------------------------|
D|-8p6-0-3h5-1p0-000000--6p4-0-8p6-0-3h5-3-00-5-00-7-|
A|-8p6-0-3h5-1p0-000000--6p4-0-8p6-0-3h5-3-00-5-00-7-|
E|-8p6-0-3h5-1p0-000000--6p4-0-8p6-0-3h5-3-00-5-00-7-|
 PM    .         ......      .     .       ..   ..
  Background for solo
e|--------------------------------------------------------------------------------------------|
B|--------------------------------------------------------------------------------------------|
G|--------------------------------------------------------------------------------------------|x2
D|-77777777-1010101010101010-12121212121212121212-77777777-1010101010101010-55555-3-00-5-00-7-|
A|-55555555-8-8-8-8-8-8-8-8--10101010101010101010-55555555-8-8-8-8-8-8-8-8--33333-3-00-5-00-7-|
E|--------------------------------------------------------------------------------3-00-5-00-7-|

  Play Chorus again and intro x2
  Thats it i hope you guys enjoy that.

| /  slide up
| \  slide down
| h  hammer-on
| p  pull-off
| ~  vibrato
| +  harmonic
| x  Mute note
============================================================================
Suggest correction
What's this?
You can suggest a correction to this tab. Community and Mods will review your correction and vote to approve or reject it.
comments
We did not receive enough feedback on this tab! Please rate:
print report bad tab
1 2 3 4 5
guest
You may want to rate the tab now too:
select rating
Please do not post tabs as comments. Select "correction" instead!