Oops, an error
Loading. Please wait.

Inspiration On Demand Tab

version 3
version 3

Whole song

Interactive

5,119 views 1 this week
14 commentsread comments
1 2 3 4 5
excellent!
x 13
add to favorites
launch autoscroll
font size
0
reset
how to read this tab
guitar tuner
Autoscroll
slow
fast
+/-
esc
set tempo
stop
Help us to improve Ultimate-Guitar.com Take our survey!
×
Inspiration On Demand-Shadows Fall

Intro Riff/Chorus RiffA
D|----------------------------------------------------------------|
A|----------------------------------------------------------------|
F|----------------------------------------------------------------|
C|------3-3-3---------5---5/7-----------3-3-3---------------------|
G|0-1-0-1-1-1-1-0-0-0-3-0-3/5-0-0-0-1-0-1-1-1-1-0-0-0-3-5-0-0-5-7-|
C|0-1-0-------1-0-0-0---------0-0-0-1-0-------1-0-0-0-3-5-0-0-5-7-|
      .   . .     . .   .     . .     .   . .     . .     . .

Intro Solo       
D|--------------------------------------------------|
A|--------------------------------------------------|
F|5/7--9-----10---/12----10----9~----------10-12-10-|
C|--------------------------------------------------|
G|--------------------------------------------------|
C|--------------------------------------------------|
 |                                                  |
D|--------------------------------------------------|
A|--------------------------------------------------|
F|--10-10-10-10-9--9--9--9--10-10-10-10-9--9--9--9--|
C|--10-10-10-10-10-10-10-10-10-10-10-10-10-10-10-10-|
G|--8--8--8--8--8--8--8--8--8--8--8--8--8--8--8--8--|
C|--8--8--8--8--8--8--8--8--8--8--8--8--8--8--8--8--|

D|--------------12----------------------------------|
A|-/13----------13-13-10-10/11~---------------------|
F|-/14-------------15-14-10/12~---------------------|
C|--------------------------------------------------|
G|--------------------------------------------------|
C|--------------------------------------------------|
 |                                                  |
D|--------------------------------------------------|
A|--------------------------------------------------|
F|--12-12-12-12-12-12-12-10-10-10----10----10\------|
C|--12-12-12-12-12-12-12-10-10-10----10----10\------|
G|--10-10-10-10-10-10-10-8--8--8-----8-----8-\---0--|
C|--10-10-10-10-10-10-10-8--8--8-----8-----8-\---0--|

Verse (half-time feel)
Part1
D|------0(0)----------0(0)----------0(0)----------5(5)------------|
A|----6-----6-------6-----6-------6-----6-------6-----6-----------|
F|--7---------7---7---------7---7---------7---7---------7---------|
C|0---------------------------8-------------8---------------------|
G|--------------8-------------------------------------------------|
C|----------------------------------------------------------------|

Part2
D|------0(0)----------0(0)----------0(0)--------------------------|
A|----6-----6-------6-----6-------6-----6-------------------------|
F|--7---------7---7-------------7---------7-----------------------|
C|0-------------------------7-8-----------------------------------|
G|--------------8-----------------------------3-0-0-5-0-0-1-1-1-1-|
C|--------------------------------------------3-0-0-5-0-0-1-1-1-1-|
                                                . .   . . . . . . 

Pre-Chorus (half-time feel)
D|------------------------------------------------|
A|------------------------------------------------|
F|5/-7--7--7-(7)-7--7/-10-10-10-10-9-(9)-10-10-10-|
C|x-----x--x-----x--x-----x--x--x--x-----x--x--x--|
G|3/-5--5--5—(5)-5--5/-8--8--8--8--7-(7)-8--8--8--|
C|------------------------------------------------|
 |                                                |
D|------------------------------------------------|
A|------------------------------------------------|
F|---------------------5--5--5--5--5--5--5--5--5--|
C|---------------------5--5--5--5--5--5--5--5--5--|
G|0-----0--0-(0)-0--0--3--3--3--3--3--3--3--3--3--|
C|0-----0--0-(0)-0--0--3--3--3--3--3--3--3--3--3--|

D|------------------------------------------------|
A|------------------------------------------------|
F|10/12-12-12(12)12-12-12-12-14-14-14-14-14-14-5--|
C|x-----x--x-----x--x--x--x--x--x--x--x--x--x--x--|
G|8-/10-10-10(10)10-10-10-10-12-12-12-12-12-12-3--|
C|------------------------------------------------|
 |                                                |
D|------------------------------------------------|
A|------------------------------------------------|
F|7--7--7--7--7--7--7--7--7--7--7--7--7--7--7--7--|
C|7--7--7--7--7--7--7--7--7--7--7--7--7--7--7--7--|
G|5--5--5--5--5--5--5--5--5--5--5--5--5--5--5--5--|
C|5--5--5--5--5--5--5--5--5--5--5--5--5--5--5--5--|

D|------------------------------------------------|
A|------------------------------------------------|
F|5/-7--7--7-(7)----7/-10-10-10-10-9-(9)-10-10-5--|
C|x-----x--x--------x-----x--x--x--x-----x--x--x--|
G|3/-5--5--5-(5)----5/-8--8--8--8--7-(7)-8--8--3--|
C|------------------------------------------------|
 |                                                |
D|------------------------------------------------|
A|------------------------------------------------|
F|------------------------5--5--5--5--5--5--5--5--|
C|------------------------5--5--5--5--5--5--5--5--|
G|0-----0--0--0--0--0--0--3--3--3--3--3--3--3--3--|
C|0-----0--0--0--0--0--0--3--3--3--3--3--3--3--3--|

D|------------------------------------------------|
A|------------------------------------------------|
F|5\-3--3--3-(3)----------------------------------|
C|x--x--x--x--------------------------------------|
G|3\-1--1--1-(1)----------------------------------|
C|------------------------------------------------|
 |                                                |
D|------------------------------------------------|
A|------------------------------------------------|
F|3--3--3--3--3--3--3--3--------------------------|
C|3--3--3--3--3--3--3--3--------------------------|
G|1--1--1--1--1--1--1--1---3-0-0-5-0-0-1-1-1-1----|
C|1--1--1--1--1--1--1--1---3-0-0-5-0-0-1-1-1-1----|
                             . .   . . . . . .
 
Chorus RiffB
D|------------------------------------------------|
A|------------------------------------------------|
F|------------------------------------------------|
C|------------------------------------------------|
G|8--8--8--8--8--8--8--8--8--8--8--8--8--8--8--8--|
C|8--8--8--8--8--8--8--8--8--8--8--8--8--8--8--8--|
 
D|------------------------------------------------|
A|------------------------------------------------|
F|------------------------------------------------|
C|------------------------------------------------|
G|10-10-10-10-10-10-10-10-1--1--1--1--1--1--1--1--|
C|10-10-10-10-10-10-10-10-1--1--1--1--1--1--1--1--|

Fill
D|----------------------|
A|----------------------|
F|----------------------|
C|----------------------|
G|3---5---6---3---5---6-|
C|3---5---6---3---5---6-|
  .   .   .   .   .   .

Bridge (half-time feel)
D|--------------------------------------------------------------|
A|--------------------------------------------------------------|
F|--------------------------------------------------------------|
C|--------------------------------------------------------------|
G|5-\-3---0---8-\-7---0---3-/-5\3-1-/-0---0---0---0---0---0---0-|
C|5-\-3---0---8-\-7---0---3-/-5\3-1-/-0---0---0---0---0---0---0-|
                                          .   .   .   .   .   .

D|--------------------------------|
A|--------------------------------|
F|--------------------------------|
C|--------------------------------|
G|5-\-3---0---8-\-7---0---3-/-5\3-|
C|5-\-3---0---8-\-7---0---3-/-5\3-|

 1,2,3                        4
D|---------------------------|--------------------------------------|
A|---------------------------|--------------------------------------|
F|---------------------------|--------------------------------------|
C|---------------------------|--------------------------------------|
G|1-/-0---0---0---3---5---6--|3---0---0---5---0---0---1---1---1---1-|
C|1-/-0---0---0---3---5---6--|3---0---0---5---0---0---1---1---1---1-|
          .   .   .   .           .   .       .   .   .   .   .   .

Solo Riff  
D|------------------------------------------------|
A|------------------------------------------------|
F|---------------------5--5--5--5--5--5--5--5--5--|
C|---------------------5--5--5--5--5--5--5--5--5--|
G|0-----0--0-(0)-0--0--3--3--3--3--3--3--3--3--3--|
C|0-----0--0-(0)-0--0--3--3--3--3--3--3--3--3--3--|

D|------------------------------------------------|
A|------------------------------------------------|
F|7--7--7--7--7--7--7--7--7--7--7--7--7--7--7--7--|
C|7--7--7--7--7--7--7--7--7--7--7--7--7--7--7--7--|
G|5--5--5--5--5--5--5--5--5--5--5--5--5--5--5--5--|
C|5--5--5--5--5--5--5--5--5--5--5--5--5--5--5--5--|

D|------------------------------------------------|
A|------------------------------------------------|
F|------------------------5--5--5--5--5--5--5--5--|
C|------------------------5--5--5--5--5--5--5--5--|
G|0-----0--0--0--0--0--0--3--3--3--3--3--3--3--3--|
C|0-----0--0--0--0--0--0--3--3--3--3--3--3--3--3--|

D|------------------------------------------------|
A|------------------------------------------------|
F|3--3--3--3--3--3--3--3--------------------------|
C|3--3--3--3--3--3--3--3--------------------------|
G|1--1--1--1--1--1--1--1---3-0-0-5-0-0-1-1-1-1----|
C|1--1--1--1--1--1--1--1---3-0-0-5-0-0-1-1-1-1----|

Solo
D|------------------------------------------------|
A|------------------------------------------------|
F|------------------------------------14-16-17-17-|
C|------------------------14-15-17-17-------------|
G|12-13-15-15-13-15-17-17-------------------------|
C|------------------------------------------------|
  .  .  .  .  .  .  .  .  .  .  .  .

D|------------------------------------17-17-18-18-|
A|------------------------17-18-20-20-------------|
F|------------15-17-19-19-------------------------|
C|15-17-19-19-------------------------------------|
G|------------------------------------------------|
C|------------------------------------------------|

D|---18-17-17----18-17-17----18-17-17----18-17-17-|
A|15----------15----------15----------15----------|
F|------------------------------------------------|
C|------------------------------------------------|
G|------------------------------------------------|
C|------------------------------------------------|

D|---18-17-17-20p18p17-18p17-------^~~~~~~~-------|
A|15-------------------------18-20/---------------|
F|------------------------------------------14----|
C|------------------------------------------------|
G|------------------------------------------------|
C|------------------------------------------------|

D|---------------------------------------------------|
A|13h15p13h15p13----13h15p13h15p13----13h15p13h15p13-|
F|---------------14----------------14----------------|
C|---------------------------------------------------|
G|---------------------------------------------------|
C|---------------------------------------------------|

D|---------------------------------------------------|
A|15h18p15h18p18----15h18p15h18p15----15h18p15/17----|
F|---------------17----------------17-------------19-|
C|---------------------------------------------------|
G|---------------------------------------------------|
C|---------------------------------------------------|

D|------------------------------------------------|
A|17h20p17h20p17----17h20p17h20p17----17h20p17----|
F|---------------19----------------19----------19-|
C|------------------------------------------------|
G|------------------------------------------------|
C|------------------------------------------------|
                      ^
D|17p12----15p12----17-\~~~-|
A|------15-------12---------|
F|--------------------------|
C|--------------------------|
G|--------------------------|
C|--------------------------|

D|--------------------------------------------------------------------|
A|--------------------------------------------------------------------|
F|-----/7--(7)--9------10--(10)--10------9--(9)---5---5/7~~~~/14---15-|
C|--------------------------------------------------------------------|
G|--------------------------------------------------------------------|
C|--------------------------------------------------------------------|

D|---------------------------------------------------^-----------^----|
A|------------------------------------------------13/-\--11---13/-\---|
F|14~-------7---7------7~---------------------------------------------|
C|--------------------------------------------------------------------|
G|--------------------------------------------------------------------|
C|--------------------------------------------------------------------|

Outro Solo
D|--------------------------------------------------|
A|--------------------------------------------------|
F|5/7--9-----10---/12----10----9~----------10-12-10-|
C|--------------------------------------------------|
G|--------------------------------------------------|
C|--------------------------------------------------|
 |                                                  |
D|--------------------------------------------------|
A|--------------------------------------------------|
F|--10-10-10-10-9--9--9--9--10-10-10-10-9--9--9--9--|
C|--10-10-10-10-10-10-10-10-10-10-10-10-10-10-10-10-|
G|--8--8--8--8--8--8--8--8--8--8--8--8--8--8--8--8--|
C|--8--8--8--8--8--8--8--8--8--8--8--8--8--8--8--8--|

D|--------------------------------------------------|
A|-/13----------13----------------------------------|
F|-/14-------------15-14-10/12~---------------------|
C|--------------------------------------------------|
G|--------------------------------------------------|
C|--------------------------------------------------|
 |                                                  |
D|--------------------------------------------------|
A|--------------------------------------------------|
F|--12-12-12-12-12-12-12-10-10-10----10----10\------|
C|--12-12-12-12-12-12-12-10-10-10----10----10\------|
G|--10-10-10-10-10-10-10-8--8--8-----8-----8-\---0--|
C|--10-10-10-10-10-10-10-8--8--8-----8-----8-\---0--|

D|--------------------------------------------------|
A|--------------------------------------------------|
F|5/7--9-----10---/12----10----9~----------10-12-10-|
C|--------------------------------------------------|
G|--------------------------------------------------|
C|--------------------------------------------------|
 |                                                  |
D|--------------------------------------------------|
A|--------------------------------------------------|
F|--10-10-10-10-9--9--9--9--10-10-10-10-9--9--9--9--|
C|--10-10-10-10-10-10-10-10-10-10-10-10-10-10-10-10-|
G|--8--8--8--8--8--8--8--8--8--8--8--8--8--8--8--8--|
C|--8--8--8--8--8--8--8--8--8--8--8--8--8--8--8--8--|

D|--------------------------------------------------|
A|--------------13----------------------------------|
F|-/14-------------15-14----------------------------|
C|--------------------------------------------------|
G|--------------------------------------------------|
C|--------------------------------------------------|
 |                                                  |
D|--------------------------------------------------|
A|--------------------------------------------------|
F|--12-12-12-12-12-12-12-10-------------------------|
C|--12-12-12-12-12-12-12-10-------------------------|
G|--10-10-10-10-10-10-10-8--3-0-0-5-0-0-1-0-0-------|
C|--10-10-10-10-10-10-10-8--3-0-0-5-0-0-1-0-0-------|
                              . .   . .   .

Song Structure
Intro Riff    -1x both guitars
Intro Solo    -1x
Verse Part1   -2x both guitars
Verse Part2   -1x both guitars
Pre-Chorus    -1x
Chorus RiffA  -1x both guitars
Chorus RiffB  -1x both guitars
Chorus RiffA  -1x both guitars
Chorus RiffB  -1x both guitars
Verse Part1   -2x both guitars
Verse Part2   -1x both guitars
Pre-Chorus    -1x
Chorus RiffA  -1x both guitars
Chorus RiffB  -1x both guitars
Chorus RiffA  -1x both guitars
Chorus RiffB  -1x both guitars
Fill          -1x both guitars
Bridge        -4x both guitars
Solo          -1x
Chorus RiffA  -1x both guitars
Chorus RiffB  -1x both guitars
Chorus RiffA  -1x both guitars
Chorus RiffB  -1x both guitars
Chorus RiffA  -1x both guitars
Outro Solo
Suggest correction
comments
print report bad tab
14 comments total. Showing first comments.
+1 reply
lespaulmonkey55 10 wrote on July 9 2005, 12:00 am

yeah you got this out of guitarworld magazine

+1 reply
lespaulmonkey55 10 wrote on July 9 2005, 12:00 am

yeah you got this out of guitarworld magazine

+1 reply
Cone 21 20 wrote on July 9 2005, 12:00 am

hell i have the sam issue of the magazine but it got ripped up, now i can look at a good tab of the song again.

guest
You may want to rate the tab now too:
select rating
Wanna post a correction for this tab? Suggest correction