Oops, an error
Loading. Please wait.

Just Another Nightmare Tab

version 1
version 1

Whole song

Interactive

946 views 1 this week
3 commentsread comments
1 2 3 4 5
please rate
add to favorites
launch autoscroll
font size
0
reset
how to read this tab
guitar tuner
Autoscroll
slow
fast
+/-
esc
set tempo
stop
Help us to improve Ultimate-Guitar.com Take our survey!
×
Author
[travis] 4,565
-------------------------------------------------------------------------------
                         "Just Another Nightmare" solo - Shadows Fall
-------------------------------------------------------------------------------


Tabbed by: [travis]


Tuning: Whole step down (D G C F A D)


Key: G Major [G A B C D E F# G]



Legend:

. = palm mute
h = hammer on
p = pull off
b = bend
__ = hold bend
1 = whole step
.5 = half step
1.5 = step and a half
() = bring bent note back to normal
~ = vibrato
x = muffled string
* = pinch harmonic
h/ = pick once
p\ = pick once
h/p\ = pick once
T = tap



Guitar 1: These are 16th notes.
D|----------15-17-15----------------15-17-15----------------15-17-15----------------15-17-15----|
A|----15-17----------17-15----15-17----------17-15----15-17----------17-15----15-17----------17-|
F|-16----------------------16----------------------16----------------------16-------------------|
C|----------------------------------------------------------------------------------------------|
G|----------------------------------------------------------------------------------------------|
D|----------------------------------------------------------------------------------------------|

Guitar 1: These are 16th notes.
D|----------17-19-17----------------17-19-17----------------17-18-17----------------17-18-17-|
A|----17-20----------20-17----17-20----------20-17----17-20----------20-17----17-20----------|
F|-19----------------------19----------------------19----------------------19----------------|
C|-------------------------------------------------------------------------------------------|
G|-------------------------------------------------------------------------------------------|
D|-------------------------------------------------------------------------------------------|

Guitar 1:
       1____           
D|--------------------------------------------------------|
A|-0------------------------------------------------------|
F|-0------------------------------------------------------|
C|-------------------------------------10----10-12*~~~~~~-|
G|---12b---(12)p10-12*~~~~~10-10-12-12----12--------------|
D|--------------------------------------------------------|

==================================================
Guitar 1: 16th notes.
D|----------------------------------------------------------------------------------|
A|-------------15h19-15-------------------------------------------------------------|
F|-------16h17----------17-14h16p14----14h16p14----14h17p14----14h16p14----14h17p14-|
C|-17h19----------------------------17----------17----------17----------17----------|
G|----------------------------------------------------------------------------------|
D|----------------------------------------------------------------------------------|

Guitar 2: 16th notes.
D|----------------------------------------------------------------------------------|
A|-------------12h15-12-------------------------------------------------------------|
F|-------12h14----------14-11h12p11----11h12p11----11h14p11----11h12p11----11h14p11-|
C|-14h15----------------------------14----------14----------14----------14----------|
G|----------------------------------------------------------------------------------|
D|----------------------------------------------------------------------------------|

==================================================
Guitar 1:
D|-------------------------------------------------|
A|-------------------------------------------------|
F|-------------10-9--------------------------------|
C|-10h/12~~~~~~-----12-----------------------------|
G|---------------------13h/15~~~----------------15-|
D|----------------------------------13-15-16-17----|
                                    ..............

===================================================
Guitar 1:
D|-------------------------------------------------------13~~~~|
A|-------------------------------------------13h15p13h15-------|
F|-------------------------------12h15p12h15-------------------|
C|-12~~~~------------12h15p12h15-------------------------------|
G|-------12h15p12h15-------------------------------------------|
D|-------------------------------------------------------------|

Guitar 2:
D|-------------------------------------------------------10~~~~|
A|-------------------------------------------10h13p10h13-------|
F|-------------------------------10h12p10h12-------------------|
C|-12~~~~------------10h12p10h12-------------------------------|
G|-------10h12p10h12-------------------------------------------|
D|-------------------------------------------------------------|

===================================================
Guitars 1 and 2:
     1_______________________          1_______________
D|---------13-------13--------------------------------------------------|
A|-13b--------13-------13---(13)--11------13---------------------10~~~~~|
F|-----------------------------------12b-----12--12---(12)p10----10~~~~~|
C|------------------------------------------------------------12--------|
G|----------------------------------------------------------------------|
D|----------------------------------------------------------------------|

===================================================
Guitar 1:
                      T
        1_____   1________________
D|-------------------------------------|
A|-0--13b----(13)b----20p13------(13)--|
F|-0-----------------------------------|
C|-------------------------------------|
G|-------------------------------------|
D|-------------------------------------|

Guitar 2:
                      T
       .5_____  .5________________
D|-------------------------------------|
A|-0--10b----(10)b----19p10------(10)--|
F|-0-----------------------------------|
C|-------------------------------------|
G|-------------------------------------|
D|-------------------------------------|

====================================================
Guitar 1:
D|-13h17p13h15p13----13h17p13----13h17p13----------------------------------------|
A|----------------15----------15----------13h17p13h15p13----13h17p13----17-15h17-|
F|-------------------------------------------------------14----------14----------|
C|-------------------------------------------------------------------------------|
G|-------------------------------------------------------------------------------|
D|-------------------------------------------------------------------------------|

Guitar 1: 16th notes.
   T           T        T           T           T       T        
D|-15p13p12p10-------------------------------------------------5h/10p8--/17---|
A|-------------15p10h11-15p13p10h11-15p13p10----15p10p8-15p8p6----------------|
F|------------------------------------------h12-------------------------------|
C|----------------------------------------------------------------------------|
G|----------------------------------------------------------------------------|
D|----------------------------------------------------------------------------|

Guitar 1: 16th notes
D|-18-18-18-17-15------------------------------------------------------------------------------|
A|----------------18-17-15-18-17-15----------------15-17-18-17-15------------------------------|
F|----------------------------------17-15-14-15-17----------------17-15-14-15-17----------19~~-|
C|-------------------------------------------------------------------------------17-19-20------|
G|---------------------------------------------------------------------------------------------|
D|---------------------------------------------------------------------------------------------|



Please Rate and Comment.
[travis]
Suggest correction new What's this?
You can suggest a correction to this tab. Community and Mods will review your correction and vote to approve or reject it.
comments
We did not receive enough feedback on this tab! Please rate:
print report bad tab
1 2 3 4 5
3 comments total.
0 reply
TC1223 483 wrote on June 15 2009, 09:14 pm

tab the whole song please !

+1 reply
[travis] 4,565 wrote on June 16 2009, 12:40 pm

I'll try my best. I'll let you know when it's done.

0 reply
TC1223 483 wrote on June 24 2009, 09:02 pm

cool man. this is a great song. appreciated

guest
You may want to rate the tab now too:
select rating
Please do not post tabs as comments. Select "correction" instead!