Oops, an error
Loading. Please wait.

Of One Blood Tab

version 1
version 1

Whole song

Interactive

2,275 views 1 this week
4 commentsread comments
1 2 3 4 5
accurate
x 3
add to favorites
launch autoscroll
font size
0
reset
how to read this tab
guitar tuner
Autoscroll
slow
fast
+/-
esc
set tempo
stop
Help us to improve Ultimate-Guitar.com Take our survey!
×
                      SHADOWS FALL - Of One Blood
                     From the Album Of One Blood
              Copyright 2000 Century Media Records
                     Version 1.0 - December 2001

Transcribed by: Beowulf

For Questions, Comments, Newest Version, or Corrections contact
Alex: at thorwulf666@yahoo.com

Check Out Death Warp, With More Transcriptions On It:
 http://www.wam.umd.edu/~ekubica

Ok, this is a bit better than my tab of Crushing Belial. Once again, the
solos
are not perfect but should be pretty damn close. Also, the whole song is in
C
tuning, but the solos had to be tabbed in regular tuning (E) because no
guitar
I've ever seen has 26 frets. To play this song, I would suggest tuning the
rhythm guitar to C and the lead guitar to E, then transposing whatever parts
you need to...I wonder how they actually play it, wish I could ask them...

..  - palm mute          /  - slide up to
 \  - slide down to      ~  - vibrato
 h  - hammer on          b  - bend
 p  - pull off            Suffixes for bend
                          ph - pinch harmonic
                           f - full bend    h - half bend
*  - see comment           r - release      t - tap bend
X  - percussion mute       ~ - vibrato bend
@  - slight palm mute     () - ghost note, sustained note
^  - artifical harmonic

Tune Gtrs I & II to C (C F A# D# G C)
Tune Solo Gtrs to E (E A D G B E)

Of One Blood

Intro (2x)

|--------------------------------------------------------------------|
|--------------------------------------------------------------------|
|--------------------------------------------------------------------|Gtr
|--2-2-2----------------------------2-2-2----------------------------| I
|--2-2-2---------------10---9-------2-2-2---------------10---12---2--|
|--0-0-0---------------8----7-------0-0-0---------------8----10---0--|
|  .....                            .....                            |
|--------------------------------------------------------------------|
|---------8-------7-----------------------8-------7------------------|
|-----------9-------8-----------------------9--------8---------------|Gtr
|-------------10------10---9------------------10--------10---12------| II
|-----------------------------------------------------------------7--|
|--------------------------------------------------------------------|

Intro Solo (regular tuning)

|--------------------------------------------------------------------------|
|--------------------------------------------------16-15-13-11-13-11-13-11-|
|------------12-13-12-8-10-8-7--------12-15-13-12--------------------------|
|-10~--12-13--------------------10-13--------------------------------------|
|--------------------------------------------------------------------------|
|--------------------------------------------------------------------------|

|--------------------------------------------------------------------------|
|--18b--13---13h15h16-17b--17h15h13h11-------------------------------------|
|--------------------------------------------------------------------------|
|--------------------------------------10h12h13-10h12h13-12h13h15-12h13h15-|
|--------------------------------------------------------------------------|
|--------------------------------------------------------------------------|

|--------------------------------------------------------------------------|
|--------------------------------------------------------------------------|
|-------------------10h12h13-10h12h13-12h13h15-12h13h15--17~---------------|
|-13h15h17-13h15h17---------------------------------------\----------------|
|----------------------------------------------------------\---------------|
|---------------------------------------------------hold into next measure-|

Rhythm under intro solo (2x)

|--------------------------------------------------------------------|
|--------------------------------------------------------------------|
|--------------------------------------------------------------------|Gtr
|--2-2-2----------------------------2-2-2----------------------------| I
|--2-2-2-2-2-2-2-2-----10---9-------2-2-2-2-2-2-2-2-----10---12---2--|
|--0-0-0-0-0-0-0-0-----8----7-------0-0-0-0-0-0-0-0-----8----10---0--|
|  ...............                  ...............                  |
|--------------------------------------------------------------------|
|---------8-------7-----------------------8-------7------------------|
|-----------9-------8-----------------------9--------8---------------|Gtr
|-------------10------10---9------------------10--------10---12------| II
|-----------------------------------------------------------------7--|
|--------------------------------------------------------------------|

Main Riff (4x)

|------------------------------------------------------------------------|
|------------------------------------------------------------------------|
|--------------12/-11-----11/12------------------------------------------|Gtr
|-2------------12/-11-----11/12--10-10-10-10-10-10-10-10-9--9-9-9-9-9-9--| I
|-2--2-2-2-2-2-10/-9------9/-10--10-10-10-10-10-10-10-10-9--9-9-9-9-9-9--|
|-0--0-0-0-0-0--------0-0--------8--8--8--8--8--8--8--8--7--7-7-7-7-7-7--|
| ............        ...           ...................	    ...........  |
|------------------------------------------------------------------------|
|-------------------------------------------13-----------12--8-----10----|
|-----------------------------------9-11-12------12-11----------9--------| Gtr
|------------------------------------------------------------------------| II
|------------------------------------------------------------------------|
|------------------------------------------------------------------------|

Fill (1x)

|-----------------------------------|--------------------------------|
|-----------------------------------|--------------------------------|
|-----------------------------------|--------------------------------|Gtr
|-------------------------9---------|--------------------------------| I
|---10----5--7--7--7h9h10---10p9h10-|--10----5--7--7-----------------|
|-------0---------------------------|------0-------------------------|

|-----------------------------------|--------------------------------|
|-----------------------------------|--------------------------------|
|-----------------------------------|--------------------------------|Gtr
|-----------------------------------|--------------2-2-2-------------| I
|-----------------------------------|--10----5--7--2-2-2-------------|
|-----------------------------------|------0-------0-0-0-------------|
						   .....

Verse (2x)

|-----------------------------------|--------------------------------|
|-----------------------------------|--------------------------------|
|-----------------------------------|--------------------------------|Gtrs
|-------------------------9---------|--------------------------------|I&II
|---10----5--7--7--7h9h10---10p9h10-|--10----5--7--7----10h7--12h9---|
|-------0---------------------------|------0----------0--------------|

Verse B (2x)
|-----------------------------------|--------------------------------|
|-----------------------------------|--------------------------------|
|-----------------------------------|--------------------------------|Gtr
|-------------------------9---------|--------------------------------| I
|---10----5--7--7--7h9h10---10p9h10-|--10----5--7--7----10h7--12h9---|
|-------0---------------------------|------0----------0--------------|
|				    |				     |
|-----------------------------------|--------------------------------|
|-----------------------------------|--------------------------------|
|-------------------------9---------|--------------------------------|Gtr
|------------------7h9h10---10p9h10-|--------------------------------|II
|---10----5--7--7-------------------|--10----5--7--7----10h7--12h9---|
|-------0---------------------------|------0----------0--------------|

Bridge (2x)

|------------------------------------|-------------------------------------|
|------------------------------------|-------------------------------------|
|------------------------------------|-------------------------------------|Gtr
|------------------------------------|-------------------------------------|I
|---------10-----9h10--9--10-9-7-5-7-|--------10-----9h10--9--10h9--12h10--|
|---0-0-0----0-0---------------------|--0-0-0----0-0-----------------------|
|   .....    ...		     |	.....    ...			   |
|------------------------------------|-------------------------------------|
|------------------------------------|-------------------------------------|
|--------9--12--11h12---11-14-12h14--|-----9--12--11h12----9--16---16------| Gtr
|--------9--14--11h12---11-16-12h14--|-----9--14--11h12----9--17---17------| II
|------------------------------------|-------------------------------------|
|------------------------------------|-------------------------------------|

Bridge 2 (2x)

|---------------------------------------------------------------------------|
|---------------------------------------------------------------------------|
|---------------------------------------------------------------------------|Gtr
|--2------------------------------------12----------------------------------| I
|--2------------------------------------12----------------------------------|
|--0------------------------------------10----------------------------------|
|  ..	   	   	   	   	..	                            |
|---------------------------------------------------------------------------|
|---------------------------------------------------------------------------|
|---------------------------------------------------------------------------|Gtr
|---------------------------------------------------------------------------|II
|---------------------------14-14-14-14----------------------------12-12-12-|
|-0-12-12-12-12-15-15-15-15-------------10-10-10-10-10-14-14-14-14----------|


|--------------------------------------------------------------------|
|--------------------------------------------------------------------|
|--------------------------------------------------------------------|Gtr
|-10----------------------------------9------------------------------| I
|-10----------------------------------9------------------------------|
|--8----------------------------------7------------------------------|
|  ..	   	   	      	      ..	                     |
|--------------------------------------------------------------------|
|--------------------------------------------------------------------|
|--------------------------------------------------------------------|Gtr
|--------------------------------------------------------------------|II
|-------------------------10-10-10-10------------------------9-9-9-9-|
|--8--8-8-8-8-12-12-12-12-------------7--7-7-7-7-10-10-10-10---------|

Pre-chorus (2x)

|---------------------------------------------------------------------------|
|---------------------------------------------------------------------------|
|---------------------------------------------------------------------------|Gtr
|---------------------------------------------------------------------------| I
|---------------------------17-17-17-17----------------------------15-15-15-|
|-0-15-15-15-15-19-19-19-19-------------14-14-14-14-14-19-19-19-19----------|
|  						                            |
|---------------------------------------------------------------------------|
|---------------------------------------------------------------------------|
|---------------------------------------------------------------------------|Gtr
|---------------------------------------------------------------------------|II
|---------------------------14-14-14-14----------------------------12-12-12-|
|-0-12-12-12-12-15-15-15-15-------------10-10-10-10-10-14-14-14-14----------|

|---------------------------------------------------------------------------|
|---------------------------------------------------------------------------|
|---------------------------------------------------------------------------|Gtr
|---------------------------------------------------------------------------| I
|----------------------------14-14-14-14------------------------12-12-12-12-|
|-12-12-12-12-12-15-15-15-15-------------10-10-10-10-14-14-14-14------------|
|									    |
|---------------------------------------------------------------------------|
|---------------------------------------------------------------------------|
|---------------------------------------------------------------------------|Gtr
|---------------------------------------------------------------------------|II
|----------------------------10-10-10-10-------------------------9--9--9--9-|
|--8--8--8--8--8-12-12-12-12-------------7--7-7-7-7--10-10-10-10------------|

Repeat from Verse to Prechorus

Chorus: Main Riff 4x

Interlude (2x)

|---------------------------------------------|
|---------------------------------------------|
|----------16--------17-16-14----16-14--------|Gtr
|-14-16-17----17-16-----------17-------17-16--| I
|---------------------------------------------|
|---------------------------------------------|
|                                             |
|---------------------------------------------|
|---------------------------------------------|
|---------------------------------------------|Gtr
|-2-------------------------------------------| II
|-2-------------------------------------------|
|-0-------------------------------------------|
  ..


|---------------------------------------------|
|---------------------------------------------|
|---------------------------------------------|
|----16-17-19-17-16-----14-16-17----16-17-19--|
|-17-----------------15----------17-----------|
|---------------------------------------------|
|                                             |
|---------------------------------------------|
|---------------------------------------------|
|---------------------------------------------|Gtr
|-12-----------------10----------12-----------| II
|-12-----------------10----------12-----------|
|-10-----------------8-----------10-----------|
  ..		     ..		 ..

Interlude B (2x)

|---------------------------------------------|
|---------------------------------------------|
|----------16--------17-16-14----16-14--------|Gtr
|-14-16-17----17-16-----------17-------17-16--| I
|---------------------------------------------|
|---------------------------------------------|
|                                             |
|---------------------------------------------|
|----------17--------18-17-------17-15--------|
|-14-16-17-----17-12-------19-17-------17-16--|Gtr
|---------------------------------------------|II
|---------------------------------------------|
|---------------------------------------------|

|---------------------------------------------|
|---------------------------------------------|
|---------------------------------------------|
|----16-17-19-17-16-----14-16-17----16-17-19--|
|-17-----------------15----------17-----------|
|---------------------------------------------|
|                                             |
|---------------------------------------------|
|---------------------------------------------|
|----16-17-19--17-16-----14-16-17----16-17-19-|Gtr
|-17------------------15----------17----------|II
|---------------------------------------------|
|---------------------------------------------|

Solo 1 (regular tuning)

|------------------------------------------------------------------------|
|----------13------------16-------15-------------------------------------|
|-10-12-13-----12-10--12----12-10----10-8-10b-8h7h5-8h7---7-7h8h7--------|
|-------------------------------------------------------------------8-8^-|
|------------------------------------------------------------------------|
|------------------------------------------------------------------------|

|--------------------------------------------------------------|
|--------------------------------------------------------------|
|--------------------------------------------------------------|
|--10-13p12p10h12h13p12p10-17p15p13p12h13h12p10-10h12h13p12h13-|
|--------------------------------------------------------------|
|--------------------------------------------------------------|

|--------------------------------------------------------------|
|--------------------------------------------------------------|
|--10h12h13-17p15p13p12h13h15-12h13h15p13-13h15h17-13h15h17-13-|
|--------------------------------------------------------------|
|--------------------------------------------------------------|
|--------------------------------------------------------------|

|-------------------------------------15p13p11-|
|-11h13h15-11h13h15-13h15h16-13h15h16----------|
|----------------------------------------------|
|----------------------------------------------|
|----------------------------------------------|
|----------------------------------------------|

|-15--13-15-16--15p13------------------------------------------------------|
|-16--15-16-18--16p15-15---13-15-16-15-18-16-15-16-15-16-18-16-20-18-16-18-|
|---------------------15---13-15-17-15-19-17-15-17-15-17-19-17-20-19-17-19-|
|--------------------------------------------------------------------------|
|-----------------*use harmonizer or 2nd lead guitar*----------------------|
|--------------------------------------------------------------------------|

|--------------------------------------16h15h13-16h15h13-20h18h16-20h18h16-|
|--16h15h13-18h16h13-16h15h13-18h15h13-------------------------------------|
|--------------------------------------------------------------------------|
|--------------------------------------------------------------------------|
|--------------------------------------------------------------------------|
|--------------------------------------------------------------------------|

|--21r---21r---21b---20b---|
|--------------------------|
|--------------------------|
|--------------------------|
|--------------------------|
|--------------------------|

Solo 1 rhythm (4x)

----------------------------------|
----------------------------------|
----------------------------------|
--2----------------------------12-|
--2--2-2-2-2-2-2-2-2-2-2-2-2-2-12-|
--0--0-0-0-0-0-0-0-0-0-0-0-0-0-10-|
     .........................

----------------------------------------------|
----------------------------------------------|
----------------------------------------------|
--12--12-12-12-12-12-12-10--10-10-12-12-12-12-|
--12--12-12-12-12-12-12-10--10-10-12-12-12-12-|
--10--10-10-10-10-10-10-8---8--8--10-10-10-10-|
  ...........................................


Solo 2 (regular tuning)

|--------------------------------------------------------------------15-16-|
|---------------------------------------16b--15-13-11-13-------------------|
|-10-12-10--6h8h10-6h8h10-8h6h5~--5h6h8------------------15h13h12-15-------|
|--------------------------------------------------------------------------|
|--------------------------------------------------------------------------|
|--------------------------------------------------------------------------|

|---------15--16-20~--16-15-13-15b----|
|--14~--------------------------------|
|-------------------------------------|
|-------------------------------------|
|-------------------------------------|
|-------------------------------------|

|------------------------------------------------|
|------------------------------------------------|
|------------------------------------------------|
|-----------------------------8h10h11-8h10h11h13-|
|-8h10h11-8h10h11h13h11h13h15--------------------|
|------------------------------------------------|

|------------------------------------------|
|------------------------------------------|
|----------------------------8h10h12--12^--|
|-10h11h13h11h13h15h11h13h15---------------|
|------------------------------------------|
|------------------------------------------|

|----------------------------------------------------------|
|-13-11-13-11-9----14-11-14-11-13-11-9----14-13-11-13-11-9-|
|---------------10---------------------10------------------|
|----------------------------------------------------------|
|----------------------------------------------------------|
|----------------------------------------------------------|

|------------------------------------------------|
|------------------------------------------------|
|-10-10h12h13-10h12h13---12h13h15-13h15-13h15h17-|
|------------------------------------------------|
|-20~-(2nd lead guitar)--------------------------|
|------------------------------------------------|

|------------------------------------13h15h16-15h16h18-20p18p16p16-|
|-11h13h14-13h14h16-14h16h18-16h18h20------------------------------|
|------------------------------------------------------------------|
|------------------------------------------------------------------|
|------------------------------------------------------------------|
|------------------------------------------------------------------|

-------------------------------------------------------------------|
-------------------------------------------------------------------|
--8b-------5----5^-----------12----13----12-13-15-13-12-13--12-----|
--------------------------10----10----10-----------------------13--|
------------------------8------------------------------------------|
-------------------------------------------------------------------|

Solo 2 rhythm (4x)

----------------------|----------------------------------|
----------------------|----------------------------------|
----------------------|------9-----9---------9-----9-----|
--7--------10----9----|------9-----9---------9-----9-----|
--7--------8-----7----|--7-7-7-7-7-7-7-7-7-7-7-7-7-7-7-7-|
--5-------------------|----------------------------------|

Solo 3 (regular tuning) (2x)

-----16-15-16----16-15-16----16-15-16----16-15-16-|
--13-18-16-18-13-18-16-18-13-18-16-18-13-18-16-18-|
--13----------13----------13----------13----------|
--------------------------------------------------|
--------------------------------------------------|
--------------------------------------------------|

--------------------------------------------------|------|
--15-16-18-16-21-20-18-16-13-15-16-15-18-16-15-11-|--13*-|
--15-17-19-17-22-20-19-17-13-15-17-15-19-17-15-12-|--13*-|
--------------------------------------------------|------|
--------*use harmonizer or 2nd lead guitar*-------|------|
--------------------------------------------------|------|

**Play the 13 only the last time and hold into the next measure

Solo 3 rhythm - same as solo 1 rhythm (2x)

Repeat from Bridge to Chorus

Fill (1x)

|-----------------------------------|--------------------------------|
|-----------------------------------|--------------------------------|
|-----------------------------------|--------------------------------|Gtr
|-------------------------9---------|--------------------------------| I
|---10----5--7--7--7h9h10---10p9h10-|--10----5--7--7-----------------|
|-------0---------------------------|------0-------------------------|

|-----------------------------------|--------------------------------|
|-----------------------------------|--------------------------------|
|-----------------------------------|--------------------------------|Gtr
|-----------------------------------|--------------2-2-2-------------| I
|-----------------------------------|--10----5--7--2-2-2-------------|
|-----------------------------------|------0-------0-0-0-------------|
Suggest correction new What's this?
You can suggest a correction to this tab. Community and Mods will review your correction and vote to approve or reject it.
comments
We did not receive enough feedback on this tab! Please rate:
print report bad tab
1 2 3 4 5
4 comments total. Showing first comments.
0 reply
notbychoice 148 wrote on September 16 2003, 12:00 am

Shadows fall muse loads of pinch harmonics and tap harmonics, and Atrificial harmonics and stuff, Thats prob the reason why the notes are that high but well never know

0 reply
notbychoice 148 wrote on October 17 2003, 12:00 am

Oh dude they tune to drop C Thats why

0 reply
tab_man84 313 wrote on May 5 2006, 12:08 am

ive seen jon play the solo live and his guitar is in drop c he just uses pinched harmonics for the solo.you dont need a 26 fret guitar or one tuned to standerd its possible to play in c.

guest
You may want to rate the tab now too:
select rating
Please do not post tabs as comments. Select "correction" instead!