Oops, an error
Loading. Please wait.

Redemption bass

version 1
version 1

Whole song

Interactive

2,280 views 3 this week
2 commentsread comments
1 2 3 4 5
1 last vote to show rating
add to favorites
×
Save as Personal and add changes to this tab that will be seen only by you. Learn more ›
×
You can save this tab as Personal to edit and correct it or add notes. All changes will be seen only by you. Learn more »
launch autoscroll
font size
0
reset
guitar tuner
backing track
0:00
0:00
edit
Autoscroll
slow
fast
+/-
esc
set tempo
stop
Author
Shadows Fall - Redemption
Threads Of Life, 2007 

Tuning: DADG

Listen closely to this song for right timing

Intro:
Part 1:
|-----------------------------------------------------------------|
|-----------------------------------------------------------------|
|-1------------------------------1--------------------------------|
|----0------------------------------0--0-0-0-0--0-0--0-0-0-0--0-0-|

Part 2:
|-----------------------------------------------------------------|
|-----------------------------------------------------------------| 2x
|---------------------------------1-1-1-1-1-1-1-1-3-3-3-3-3-3-3-3-|
|-0-0-0-0-0-0-0-0-0-0-0-0-0-0-0-0---------------------------------|

Part 3:
|---------------------------------------------------------------------|
|---------------------------------------------------------------------|
|-1----------------------------------1--------------------------------|
|----0--0-0-0-0--0-0--0-0-0-0--0-0------0--0-0-0-0--0-0--0-0-0-0--3-1-|

Verse:
Part 1:
|-----------------------------------------------------------------------|
|-----------------------------------------------------------------------|
|-----------------------------------------------------------------------|
|-0----------------------0-5-6-8-0-5-\-------0-------------0------------|

Part 2:
|-----------------------------------------------------------------|
|-----------------------------------------------------------------| 2x
|-----------------------------------------------------------------|
|-0-0-0-0-0-0-0-0-0-0-0-0-0-0-0-0-3-3-3-3-3-3-3-3-5-5-5-5-5-5-5-5-|

Bridge:
|----------------------------------|  
|----------------------------------| 3x
|-1--------------------------------|
|----0--0-0-0-0--0-0--0-0-0-0--0-0-|

|-----------------------|
|-----------------------|
|-1--------3------------|
|-------------------3-3-|

Chorus:
|-------------------------------------|
|-------------------------------------| 2x
|-------------------1--------0--------|
|-0--------0--------------------------|

|----------|
|----------|
|----------|
|-0--------|

Bridge:
|-----------------------------------------|
|-----------------------------------------| 3x
|-0-0-0-0-5-0-0-6-0-5-0-0-0-0-5---------3-|
|-------------------------------0-0-0-0---|

Verse:
Part 1:
|-----------------------------------------------------------------------|
|-----------------------------------------------------------------------|
|-----------------------------------------------------------------------|
|-0----------------------0-5-6-8-0-5-\-------0-------------0------------|

Part 2:
|-----------------------------------------------------------------|
|-----------------------------------------------------------------| 2x
|-----------------------------------------------------------------|
|-0-0-0-0-0-0-0-0-0-0-0-0-0-0-0-0-3-3-3-3-3-3-3-3-5-5-5-5-5-5-5-5-|

Bridge:
|----------------------------------|  
|----------------------------------| 3x
|-1--------------------------------|
|----0--0-0-0-0--0-0--0-0-0-0--0-0-|

|-----------------------|
|-----------------------|
|-1--------3------------|
|-------------------3-3-|

Chorus:
|-------------------------------------|
|-------------------------------------| 2x
|-------------------1--------0--------|
|-0--------0--------------------------|

Bridge:
Part 1:
|----------------------------------|
|----------------------------------|
|-3-5--------------5-3-------------|
|-----6-5--0-3-0-3-----5-3-6-5-3-5-|

Part 2:
|---------------------------------------------------|
|---------------------------------------------------| 4x
|------------------3-5--------------5-3-------------|
|-0--------------------6-5--0-3-0-3-----5-3-6-5-3-5-|

Riff under solo:
Part 1:
|-------------------------------------------|
|-------------------------------------------| 2x
|-------------------------------------------|
|-0-0--0-0---0-0--0-0---3-3--3-3---5-5--5-5-|

Part 2:
|----------------------------------------|
|----------------------------------------| 4x
|-1-------------------1------------------|
|---0--0-0-0-0-0-0-0----0--3-3-3-3-3-3-3-|

Bridge:
|-----------------------------------------------------------------|
|-----------------------------------------------------------------| 2x
|-----------------------------------------------------------------|
|-0-0-0-0-0-0-0-0-0-0-0-0-0-0-0-0-3-3-3-3-3-3-3-3-5-5-5-5-5-5-5-5-|

|-----------------|
|-----------------|
|-3-5-------------|
|-----6-5-0----3-3|

Chorus:
|-------------------------------------|
|-------------------------------------| 2x
|-------------------1--------0--------|
|-0--------0--------------------------|

Outro:
|--------------------------------------------------------------------|
|--------------------------------------------------------------------|
|-1------------------------------1-----------------------3-5---------|
|----0------------------------------0--0-0-0-0--0-0--0-3-----6-5-0---|

            
            
Suggest correction
Creating personal tab
Creating personal tab
You can edit any tab online and save it as your Personal.

You can edit, replace or remove any tab part or add personal notes – all changes will be seen only by you.

Personal tabs can be accessed anytime from any device, even offline.
Learn more »
Give kudos to tab author, rate the tab!
1 2 3 4 5
comments
print report bad tab
2 comments total.
+1 reply
DuffMcKagan7179 1,502 Jul 13, 2007 05:54 AM

In Intro Part 2, the riff goes D to B flat to C, not D to F to G, so it's

|------------------------------------------------------------------|
|------------------------------------------------------------------|
|---------------------------------1-1-1-1-1-1-1-1-3-3-3-3-3-3-3-3--|
|-0-0-0-0-0-0-0-0-0-0-0-0-0-0-0-0----------------------------------|

0 reply
saberrocks 1,167 Jul 14, 2007 04:26 AM

okay thanx, checked and updated, you were right.

guest
You may want to rate the tab now too:
select rating
Wanna post a correction for this tab? Suggest correction