Oops, an error
Loading. Please wait.

Redemption Tab

version 1
version 1

Intro

Whole song

Interactive

2,473 views 1 this week
4 commentsread comments
1 2 3 4 5
accurate
x 5
add to favorites
launch autoscroll
font size
0
reset
how to read this tab
guitar tuner
Tab Pro tools
  • play this tab
  • loop segment
  • change instrument
  • show fretboard
  • metronome
×
Best way to learn
"Redemption"
Autoscroll
slow
fast
+/-
esc
set tempo
stop
Contributor
Difficulty
Tuning
novice
D A D G B E
Redemption : Intro

tunning drop d

both guitars:
      PM     PM........................................ x2
|-------------------------------------------------------|
|0-----------------------------------------------------0|
|-3-----------------------------------------------------|
|-3-------0---------------------------------------------|
|01-------0--------------------------------------------0|
|------0--0---0-0-0-0-0--0-0--0-0-0-0-0--0-0--0-0-0-0-0-|
              |first time only guitar 1 ---------------|

guitar 2 continues above 

guitar 1:
 PM       PM     PM        PM       PM........     x4
|---------------------------------------------------|
|0-------------------------------------------------0|
|---------------------------------------------------|
|----5--3----2-------5--3------2--------------------|
|0-------------3------------------3--0-0--0--3--5--0|
|-0--------0------0--------0------------------------|

there thats about all i got the second half is repeated in the chorus
and the first half is like teh main riff. 
so you guys can give a shot at the rest, that's all i can really do.
comments
print report bad tab
4 comments total. Showing first comments.
0 reply
that_i_am wrote on April 20 2007, 08:36 pm

sounds good so far.

0 reply
arnell wrote on May 16 2007, 11:24 am

its ok actually very good

0 reply
metal_lover4eve wrote on May 22 2007, 05:36 pm

wrong tuning it should be d standard

I want to post or [tab]
guest
You may want to rate the tab now too:
select rating
Please do not post tabs as comments. Select "correction" instead!